Me First And The Gimme Gimmes - Elanor Rose Chords & Tabs

 

Elanor Rose Chords & Tabs

Me First And The Gimme Gimmes Chords & Tabs

Version: 1 Type: Tab 0 ratings
1 star 2 stars 3 stars 4 stars 5 stars
comments

Elanor Rose Tab

ELEONOR - Me First And The Gimme Gimmes


By Kru@Virgilio.it

Intro
e|----------------------------------------------------------|
b|----------------------------------------------------------|
g|----------------------------------------------------------|
d|--9-9-9-9-----10-10-10-10---------------------------------|
a|--7-7-7-7------8--8--8--8---------------------------------|
E|----------------------------------------------------------|

 |Riff 1
e|----------------------------------------------------------|
b|----------------------------------------------------------|
g|----------------------------------------------------------|
d|--9-9-9-9-9------------------------9-9-9-9-9--------------|
a|--7-7-7-7-7--7-7-7-7-7--9-9-9-9-9--7-7-7-7-7--10-9--------|
E|-------------5-5-5-5-5--7-7-7-7-7--------------8-7--------|
 |
 
e|----------------------------------------------------------|
b|----------------------------------------------------------|
g|----------------------------------------------------------|
d|--9-9-9-9-9------------------------9-9-9-9-9--------------|
a|--7-7-7-7-7--7-7-7-7-7--9-9-9-9-9--7-7-7-7-7--------------|
E|-------------5-5-5-5-5--7-7-7-7-7------------7-8-7-3-3----|

 |Rit.
e|----------------------------------------------------------|
b|----------------------------------------------------------|
g|----------------------------------------------------------|
d|--9-9-9---------------------------------------------------|
a|--7-7-7--6-6-6-7-7-7--9-9-9-------------------------------|
E|---------4-4-4-5-5-5--7-7-7-------------------------------|

e|----------------------------------------------------------|
b|----------------------------------------------------------|
g|----------------------------------------------------------|
d|-11-11--10-10--9-9--8-8-------9-9-------------------------|
a|--9--9---8--8--7-7--6-6--9-9--7-7-------------------------|
E|-------------------------7-7-------7-8-7-3-3--------------|
[ Tab from: http://www.guitartabs.cc/tabs/m/me_first_and_the_gimme_gimmes/elanor_rose_tab.html ]
e|----------------------------------------------------------|
b|----------------------------------------------------------|
g|----------------------------------------------------------|
d|--9-9-9-9-----10-10-10-10---------------------------------|
a|--7-7-7-7------8--8--8--8---------------------------------|
E|----------------------------------------------------------|

 |Riff 1
e|----------------------------------------------------------|
b|----------------------------------------------------------|
g|----------------------------------------------------------|
d|--9-9-9-9-9------------------------9-9-9-9-9--------------|
a|--7-7-7-7-7--7-7-7-7-7--9-9-9-9-9--7-7-7-7-7--10-9--------|
E|-------------5-5-5-5-5--7-7-7-7-7--------------8-7--------|
 |
 
e|----------------------------------------------------------|
b|----------------------------------------------------------|
g|----------------------------------------------------------|
d|--9-9-9-9-9------------------------9-9-9-9-9--------------|
a|--7-7-7-7-7--7-7-7-7-7--9-9-9-9-9--7-7-7-7-7--------------|
E|-------------5-5-5-5-5--7-7-7-7-7------------7-8-7-3-3----|

|Rit.
e|----------------------------------------------------------|
b|----------------------------------------------------------|
g|----------------------------------------------------------|
d|--9-9-9---------------------------------------------------|
a|--7-7-7--6-6-6-7-7-7--9-9-9-------------------------------|
E|---------4-4-4-5-5-5--7-7-7-------------------------------|

e|----------------------------------------------------------|
b|----------------------------------------------------------|
g|----------------------------------------------------------|
d|-11-11--10-10--9-9--8-8-------9-9-------------------------|
a|--9--9---8--8--7-7--6-6--9-9--7-7-------------------------|
E|-------------------------7-7------------------------------|

e|----------------------------------------------------------|
b|----------------------------------------------------------|
g|----------------------------------------------------------|
d|--9-9-9---------------------------------------------------|
a|--7-7-7---6-6--9-9----------------------------------------|
E|----------4-4--7-7----------------------------------------|
Comments