Me First And The Gimme Gimmes - Blowin In The Wind Chords & Tabs

 

Blowin In The Wind Chords & Tabs

Me First And The Gimme Gimmes Chords & Tabs

Version: 1 Type: Bass Tab 0 ratings
1 star 2 stars 3 stars 4 stars 5 stars
comments

Blowin In The Wind Bass Tab

VERSE at00:09 *=play 6X   %=play 18X   ยค=play 12X
G----------------------------------------------+
D----------------------------------------------+
A-0*--5*--0%---5*--0%---5*--0*------0*--5*--7ย-+
E-------------------------------2*-------------+

CHORUS *=play 6X   %=play 18X   
G--------------------------------------------------------+
D--------------------------------------------------------+
A-0*--5*--0%---5*--0%---5*--7*--------------------5*--7*-+
E-------------------------------5-5-5--4-4-4--2*---------+

BRIDGE *=play 6X
G---------------------+
D---------------------+
A-0*--5-0-0-5-0-0-5-0-+
E---------------------+
[ Tab from: http://www.guitartabs.cc/tabs/m/me_first_and_the_gimme_gimmes/blowin_in_the_wind_btab.html ]
VERSE2 *=play 6X   %=play 18X   ยค=play 12X
G--------------------------------------------------+
D--------------------------------------------------+
A-0*--5*--0%---5*--12ยค--0*--5*--0*------0*--5*--7-+
E-----------------------------------2*-------------+

CHORUS2 *=play 6X   %=play 18X   ยค=play 12X  
G--------------------------------------------------------+
D--------------------------------------------------------+
A-0*--5*--0%---5*--12ยค--5*--7*--------------------5*--7*+
E-------------------------------5-5-5--4-4-4--2*---------+

BRIDGE2 ยค=play 12X
G---------------------------------------------------------------+
D---------------------------------------------------------------+
A-0ยค--5*--7*-----------2-222--5-555--0*--5--0*--5-0-0-5-0-0-5-0+
E-------------5--3--2-------------------------------------------+
Comments