Me First And The Gimme Gimmes - All My Loving Chords & Tabs

 

All My Loving Chords & Tabs

Me First And The Gimme Gimmes Chords & Tabs

Version: 1 Type: Tab 0 ratings
1 star 2 stars 3 stars 4 stars 5 stars
comments

All My Loving Tab

Band: Me First And The Gimme Gimmes
Song: All My Loving
CD: Blow in the Wind
Track: 7

Standerd Tunning

Whole song is in distortion. Easy song!

Here we go...

VERSE:
e|--------------------------------------------------------------------------|
B|--------------------------------------------------------------------------|
G|---------------------------4----------9-----------------------------------|
D|------------4--------------4----------9-----------------------------------|
A|------------4--------------2----------7-----------------------------------|
E|------------2-------------------------------------------------------------|
  Close you eye's and I'll kiss you. Tomorrow I'll miss you

e|--------------------------------------------------------------------------|
B|--------------------------------------------------------------------------|
G|--------------------------7--------------------4--------------------------|
D|----7-----------4---------7---------4----------4--------------------------|
A|----7-----------4---------5---------4----------2--------------------------|
E|----5-----------2-------------------2-------------------------------------|
  Remember I'll always be true. And while I'm away
[ Tab from: http://www.guitartabs.cc/tabs/m/me_first_and_the_gimme_gimmes/all_my_loving_tab.html ]
e|--------------------------------------------------------------------------|
B|--------------------------------------------------------------------------|
G|------------9---------6----------------------4---------9------------------|
D|------------9---------6--------------7-------4---------9------------------|
A|------------7---------4--------------7-------2---------7------------------
E|-------------------------------------5------------------------------------|
  I'll write home everyday. And I'll send my loving to you

  Then the second verse is the same as the first.

  CHORUS:
e|--------------------------------------------------------------------------|
B|--------------------------------------------------------------------------|
G|---------6-----5--------------9-------------------------------------------|
D|---------6-----5--------------9-------------------------------------------|
A|---------4-----3--------------7-------------------------------------------|
E|--------------------------------------------------------------------------|
  All my loving I will send to you (x2)

  Than cut back to the 1st verse and do the chorus after that.

OUTRO:
e|--------------------------------------------------------------------------|
B|--------------------------------------------------------------------------|
G|---------6--------------9-------------------------------------------------|
D|---------6--------------9-------------------------------------------------|
A|---------4--------------7-------------------------------------------------|
E|--------------------------------------------------------------------------|
  All my loving, all my loving....

plz rate
Comments