Mdfmk - Torpedoes Chords & Tabs

 

Torpedoes Chords & Tabs

Mdfmk Chords & Tabs

Version: 2 Type: Bass Tab 0 ratings
1 star 2 stars 3 stars 4 stars 5 stars
comments

Torpedoes Bass Tab

MDFMK
Torpedoes
Sascha Konietzko  Tim Skold  Lucia Cifereli

Tabbed by Pat Lynch (pat_thetic@hotmail.com)


Intro

G|---------------------------------------------------------------
D|---------------------------------------------------------------
A|---------------------------------------------------------------
E|----7~------5h6~-----4~-----3~-(3)~----------------------------

   Give each one a pull down on the string, and then pull
   tiwce on the last G.


Opening Riff

G|---------------------------------------------------------------
D|---------------------------------------------------------------
A|---0-00-00-00-00-00-00-00-0------------3-33-35-55-5------------
E|---------------------------3-33-33-33-3------------------------

G|---------------------------------------------------------------
D|---------------------------------------------------------------
A|---0-00-00-00-00-00-00-00-03-33-33-33-35-55-55-55-5------------
E|---------------------------------------------------------------
[ Tab from: http://www.guitartabs.cc/tabs/m/mdfmk/torpedoes_btab_ver_2.html ]
   This is also some of the riffs between the chrous
   and the verse, there's also an interlude type part
   that has the same thing played.


Chorus

G|---------------------------------------------------------------
D|---------------------------------------------------------------
A|---0-00-00-00-00-00-00-00-0------------3-33-35-55-5------------
E|---------------------------3-33-33-33-3------------------------


Verse

G|---------------------------------------------------------------
D|---------------------------------------------------------------
A|---------------------------------------------------------------
E|---0-00-00-00-00-00-00-00-00-00-00-00-00-00-00-00-0------------

G|---------------------------------------------------------------
D|---------------------------------------------------------------
A|---0-00-00-00-00-00-00-00-0------------------------------------
E|---------------------------3-33-33-33-33-33-33-33-3------------

G|-----------------------------
D|-----------------------------
A|---3-33-33-33-33-33-33-33-3--
E|-----------------------------

    Notes are much more spaced and quiter than chrous.

    That's about.  Comments? Corrections? E-mail me at 
pat_thetic@hotmail.com.
Comments