Mdc - Slow Stupid And Hungry Chords & Tabs

 

Slow Stupid And Hungry Chords & Tabs

Mdc Chords & Tabs

Version: 1 Type: Tab 0 ratings
1 star 2 stars 3 stars 4 stars 5 stars
comments

Slow Stupid And Hungry Tab

M.D.C. - Slow, Stupid, and Hungry

By:millions of dumb acronymns 

intro 
e|---------------------------------------------------------------------------| 
B|----------------create! don't create!--------------------------------------| 
G|--5----55------------------------------------------------------------------| 
D|--5-66-55-4----------------------------------------------------------------| 
A|--3-66-33-4----------------------------------------------------------------| 
E|----44----2----------------------------------------------------------------| 

play a couple more times then on last before verse do the bend 
e|---------------------------------------------------------------------------| 
B|---------------------------------------------------------------------------| 
G|--5----55------5--bend up--------------------------------------------------| 
D|--5-66-55-4----------------------------------------------------------------| 
A|--3-66-33-4----------------------------------------------------------------| 
E|----44----2----------------------------------------------------------------| 

verse 1 is the intro palm muted 
[ Tab from: http://www.guitartabs.cc/tabs/m/mdc/slow_stupid_and_hungry_tab.html ]
chorus 
e|---------------------------------------------------------------------------| 
B|---------------------------------------------------------------------------| 
G|---------------------------------------------------------------------------| 
D|-----5-55-44---------------------------------------------------------------| 
A|-----5-55-44--hit some note on this string and go flyin up the guitar------| 
E|-----3-33-22---------------------------------------------------------------| 

verse 2 verse 3 
e|---------------------------------------------------------------------------| 
B|---------------------------------------------------------------------------| 
G|----7-----77--------------------9-------99---------------------------------| 
D|----7--88-77-6------------------9-10-10-99-8-------------------------------| 
A|----5--88-55-6------------------7-10-10-77-8-------------------------------| 
E|-------66----4--------------------8--8-----6-------------------------------| 

outro 
e|---------------------------------------------------------------------------| 
B|---------------------------------------------------------------------------| 
G|-------------------22222222bend up-----------------------------------------| 
D|---6--5--4--3--2-----------------------------------------------------------| 
A|---6--5--4--3--2-----------------------------------------------------------| 
E|---4--3--2--1--0-----------------------------------------------------------| 

just fantastic lyrical song
Comments