Mdc - Millions Of Dead Cops Chords & Tabs

 

Millions Of Dead Cops Chords & Tabs

Mdc Chords & Tabs

Version: 1 Type: Tab 0 ratings
1 star 2 stars 3 stars 4 stars 5 stars
comments

Millions Of Dead Cops Tab

M.D.C. - Millions Of Dead Cops

Intro 4x 
e|---------------------------------------------------------------------------| 
B|---------------------------------------------------------------------------| 
G|---------------------------------------------------------------------------| 
D|--22--5--7-8---------------------------------------------------------------| 
A|--22--5--7-8---------------------------------------------------------------| 
E|--00--3--5-6---------------------------------------------------------------| 


Verse 
e|-listen for the rhythm-----------------------------------------------------| 
B|-----------------------here's the change in the verse----------------------| 
G|---------------------------------------------------------------------------| 
D|-22-2--22-2--------------5788--5788----------------------------------------| 
A|-2222--2222--------------5788--5788----------------------------------------| 
E|-0030--0030--------------3566--3566----------------------------------------| 
[ Tab from: http://www.guitartabs.cc/tabs/m/mdc/millions_of_dead_cops_tab.html ]
Chorus 
e|---------------------------------------------------------------------------| 
B|---------------------------------------------------------------------------| 
G|--9------------------------------------------------------------------------| 
D|--9--x-6times----7875-5----------------------------------------------------| 
A|--7--------------7875-5----------------------------------------------------| 
E|--0--------------5653-3----------------------------------------------------| 

Solo (this is far from right) 
e|---------------------------------------------------------------------------| 
B|----------------------------------------------------------------10--with---| 
G|-----9---then do some --------3--bends hammers------9----12-----12---bend--| 
D|------------bend/hammer ons------------------------------------------------| 
A|---------------------------------------------------------------------------| 
E|---------------------------------------------------------------------------| 

e|------------------------------------12--------------------15---------------| 
B|---12-------------------------------15--bends and shit----17-yep, more bend| 
G|---15--lots of bends and hammers-------------------------------------------| 
D|---------------------------------------------------------------------------| 
A|---------------------------------------------------------------------------| 
E|---------------------------------------------------------------------------| 

so obviously the solo is not complete so just fill in the blanks.
create?!? don't create, play what i fuckin tell you to play, jsut do the song
Comments