Mdc - Dick For Brains Chords & Tabs

 

Dick For Brains Chords & Tabs

Mdc Chords & Tabs

Version: 1 Type: Tab 0 ratings
1 star 2 stars 3 stars 4 stars 5 stars
comments

Dick For Brains Tab

song: dick for brains
by: mdc

intro
E-----------------------------------------|
B-----------------------------------------|
G-----------------------------------------|
D-----------------------------------------|
A--7-77-7-7-7--7-77-7-7-7-10-10-10101010--|
E--5-55-5-5-5--5-55-5-5-5--8--8--8-8-8-8--|
     pm          pm

E-------------------------------------------------|
B-------------------------------------------------|
G-------------------------------------------------|
D-------7-77---------------7-77-------------------|
A--5-55-5-55-7-777777-5-55-5-55-7-777777--5---3---|
E--3-33------5-555555-3-33------5-555555--3---1---|
[ Tab from: http://www.guitartabs.cc/tabs/m/mdc/dick_for_brains_tab.html ]
verse
E-----------------------------------------------------------------------|
B-----------------------------------------------------------------------|
G-----------------------------------------------------------------------|
D-----------------------------------------------------------------------|
A--77-10101010-77-10101010---10101010-7777-10101010-7777-10101010-7777--|
E--55--8-8-8-8-55--8-8-8-8----8-8-8-8-5555--8-8-8-8-5555--8-8-8-8-5555--|

chorus
E--------------------------------------------|
B--------------------------------------------|
G--------------------------------------------|
D-----77---------77---------77---------------|
A--55-55-7777-55-55-7777-55-55-7777--5---3---|
E--33----5555-33----5555-33----5555--3---1---|

i dont know the timing but if youve got the album you can figure it out yourself.
Comments