Md 45 - No Pain Chords & Tabs

 

No Pain Chords & Tabs

Md 45 Chords & Tabs

Version: 1 Type: Tab 0 ratings
1 star 2 stars 3 stars 4 stars 5 stars
comments

No Pain Tab

Intro:

E|-------------------------------|
B|-------------------------------|x8
G|-------------------------------|
D|-7h8p7-5-7---8---7h8p7-5-7-8---|
A|-----------5-6-------------6-8-|
E|-----------3-----------------6-|

Before Verse:

E|--------------------------|
B|--------------------------|
G|--------------------------|
D|--9-9--8-8--6-6--5-5--4-3-|
A|--7-7--6-6--4-4--3-3--2-1-|
E|--------------------------|

Verse:

E|----------------------|
B|----------------------|x4
G|----------------------|
D|-7-8-7-10-8-7-8-7-----|
A|-7-8-7-10-8-7-8-7-----|
E|-5-6-5-8--6-5-6-5-3-6-|

E|--------------------12-12-12-12-12-12-|
B|--------------------12-12-12-12-12-12-|x4
G|--------------------12-12-12-12-12-12-|
D|-7-8-7-10-8-7-8-7---------------------|
A|-7-8-7-10-8-7-8-7---------------------|
E|-5-6-5-8--6-5-6-5---------------------|

Chorus:

E|-------------------------------|
B|-------------------------------|x4
G|-------------------------------|
D|-7h8p7-5-7---8---7h8p7-5-7-8---|
A|-----------5-6-------------6-8-|
E|-----------3-----------------6-|

Verse:

E|----------------------|
B|----------------------|x4
G|----------------------|
D|-7-8-7-10-8-7-8-7-----|
A|-7-8-7-10-8-7-8-7-----|
E|-5-6-5-8--6-5-6-5-3-6-|

E|--------------------12-12-12-12-12-12-|
B|--------------------12-12-12-12-12-12-|x4
G|--------------------12-12-12-12-12-12-|
D|-7-8-7-10-8-7-8-7---------------------|
A|-7-8-7-10-8-7-8-7---------------------|
E|-5-6-5-8--6-5-6-5---------------------|

Chorus:

E|-------------------------------|
B|-------------------------------|x4
G|-------------------------------|
D|-7h8p7-5-7---8---7h8p7-5-7-8---|
A|-----------5-6-------------6-8-|
E|-----------3-----------------6-|

Solo:
[ Tab from: http://www.guitartabs.cc/tabs/m/md_45/no_pain_tab.html ]
E|-------------------------------------------------|
B|-------------------------------------------------|
G|-------------------------------------------------|
D|-------------------------------------------------|
A|-------7-8-7-------5-6-5-------3-4-3-------1-2-1-|
E|-0-7-8-------0-5-6-------0-3-4-------0-1-2-------|
PM . . .       . . .       . . .       . . .

E|-------------------------------------------------------------|
B|-------------------------------------------------------------|
G|-------------------------------------------------------------|
D|-----------------------------------------------------------9-|
A|-0-2-1--7-8-7-------7-6-5--5-4--4-3--3-2---2---------------7-|
E|--------------0-5-6-------4----3----2------0---------------0-|
PM              . . .       .    .    .     

Interlude:
E|---------------------------------------------------------|
B|---------------------------------------------------------|x3
G|---------------------------------------------------------|
D|-7h8p7-5-7---8---7h8p7-5-7-8-----7h8p7-5-7---8-----------|
A|-----------5-6-------------6-8-------------5-6--7-8-9-10-|
E|-----------3-----------------6-------------3----5-6-7-8--|

E|--------------------------|
B|--------------------------|
G|--------------------------|
D|--9-9--8-8--6-6--5-5--4-3-|
A|--7-7--6-6--4-4--3-3--2-1-|
E|--------------------------|

Verse:

E|----------------------|
B|----------------------|x4
G|----------------------|
D|-7-8-7-10-8-7-8-7-----|
A|-7-8-7-10-8-7-8-7-----|
E|-5-6-5-8--6-5-6-5-3-6-|

E|--------------------12-12-12-12-12-12-|
B|--------------------12-12-12-12-12-12-|x4
G|--------------------12-12-12-12-12-12-|
D|-7-8-7-10-8-7-8-7---------------------|
A|-7-8-7-10-8-7-8-7---------------------|
E|-5-6-5-8--6-5-6-5---------------------|

Chorus:

E|-------------------------------|
B|-------------------------------|x4
G|-------------------------------|
D|-7h8p7-5-7---8---7h8p7-5-7-8---|
A|-----------5-6-------------6-8-|
E|-----------3-----------------6-|

Ending:

E|--------------------------|
B|--------------------------|
G|--------------------------|
D|--9-9--8-8--6-6--5-5--4-3-|
A|--7-7--6-6--4-4--3-3--2-1-|
E|--------------------------|
Comments