Mctell Ralph - Summer Lightning Chords & Tabs

 

Summer Lightning Chords & Tabs

Mctell Ralph Chords & Tabs

Version: 1 Type: Tab 0 ratings
1 star 2 stars 3 stars 4 stars 5 stars
comments

Summer Lightning Tab

   
                                    Summer Lightning                                      


                                                  © 1974 - Words and Music by Ralph McTell
Acoustic guitar
96bpm



         Em    Gmaj7           Cmaj7                C           G                   
E||------3-----2--2h3p2-----|--0-----------0-----------|--------------3---------3--|
B||----------------------0--|-----0-----------0-----1--|--1--0--0--------0h1-------|
G||---------0---------------|--------0-----------------|---------------------0-----|
D||------2-----0------------|-----------2--------2-----|--2--0-----0-----0h2-------|
A||-------------------------|--3-----------------------|---------------------------|
E||-------------------------|--------------------------|--------3------------------|


        Em    Gmaj7          Cmaj7                      Cdim                     
--------3-----2-----2-----|--0-----------0-----------|--------5--------5--------|
--0--------------------0--|-----0-----------0-----0--|--4--------4--------4-----|
-----0-----0-----0--------|--------0-----------------|-----5--------5--------5--|
--------2-----0-----------|-----------2--------2-----|--4--------4--------------|
--------------------------|--3-----------------------|--------------------------|
--3-----------------------|--------------------------|--------------------------|


  Bm7                        Em                         Am7                      
--------5--------5--------|-----------0--------------|--------3--------3--------|
--3--------3--------------|-----0-----0-----0--------|--1--------1--------1-----|
-----4--------4-----------|--------0--0--------------|-----0--------0--------0--|
--4--------4--------------|--------------------2-----|-----------2--------2-----|
--------------------------|-----------------------2--|--0-----------------------|
--------------------3--2--|--0-----------0-----------|--------------------------|


  D                            G                                                  
--0h2----2--0h2----2--3-----|-----3-----3-----3-----3--|-----3-----3-----3----3--|
--3------3--3------3--3-----|-----3-----3-----3-----3--|-----3-----3-----3----3--|
------2---------2-----------|--------------------------|-----0-----0-----0----0--|
--0---------0------------0--|--------------------------|-------------------------|
----------------------------|--------0-----2-----------|--------0-----2----------|
----------------------------|--3-----------------3-----|--3----------------------|


  Cmaj7                      Cdim                       Bm7                      
--0-----------0-----------|--------5--------5--------|--------5--------5--------|
-----0-----------0-----0--|--4--------4--------4-----|--3--------3--------------|
--------0-----------------|-----5--------5--------5--|-----4--------4-----------|
-----------2--------2-----|--4--------4--------------|--4--------4--------------|
--3-----------------------|--------------------------|--------------------------|
--------------------------|--------------------------|--------------------3--2--|


  Em                         Am7                        D                          
-----------0--------------|--------3--------3--------|--0h2----2--0h2----2--3-----|
-----0-----0-----0--------|--1--------1--------1-----|--3------3--3------3--3-----|
--------0--0--------------|-----0--------0--------0--|------2---------2-----------|
--------------------2-----|-----------2--------2-----|--0---------0------------0--|
-----------------------2--|--0-----------------------|----------------------------|
--0-----------0-----------|--------------------------|----------------------------|


  G           Cadd9                            G#5      Am          Am/G#        
--3-----3-----------3-----|--------3--------3-----4--|--------0-----------0-----|
-----------3--3-----3-----|--------3--------3-----4--|--1--------1--1--------1--|
-----0-----------------0--|--------------------------|-----2-----------2--------|
-----------------2--------|-----0--------0-----------|--------------------------|
--------------3-----------|--------------------------|--0--------0--------------|
--3-----------------------|--3--------3--------4-----|--------------4--------4--|


  Am/G                       G           Bm             Em                       
--------0--------0-----0--|--3-----3-----------2-----|--0--------0--------------|
--------1--------1-----1--|--3-----3-----3--------3--|--0-----0--0-----0--------|
-----2--------2-----------|-----0-----------4--------|--------0--------0--------|
--------------------2-----|-----------0--4-----------|-----2--------2--------2--|
--------------------------|--------------------------|--------------------2-----|
--3--------3--------------|--3-----------------------|--0--------0--------------|


  G           C6              G                          Fadd9                    
--3-----3------------3-----|--------3--------3-----3--|--------3--------3-----3--|
-----------3--0h1----1-----|--------3--------3-----3--|--1-----1--1-----1-----1--|
-----0------------0-----0--|--------------------0-----|-----2--------2-----------|
--------------0h2----------|-----0--------0-----------|--3--------3--------3-----|
---------------------------|--------------------------|--------------------------|
--3------------------------|--3--------3--------------|--------------------------|


  Cadd9                 Cmaj  G           C6              G     Em    Gmaj7         
---------0--------0-----0--|--3-----3------------3-----|--------3-----2--2h3p2-----|
--1h3-------1-----1-----0--|-----------3--0h1----1-----|--0---------------------0--|
------0--------0-----------|-----0------------0-----0--|-----0-----0---------------|
---------------------2-----|--------------0h2----------|--------2-----0------------|
--3---------3--------------|---------------------------|---------------------------|
---------------------------|--3------------------------|--3------------------------|

[ Tab from: http://www.guitartabs.cc/tabs/m/mctell_ralph/summer_lightning_tab.html ]
  Cmaj7                      Cdim                       Bm7                      
--0-----------0-----------|--------5--------5--------|--------5--------5--------|
-----0-----------0-----0--|--4--------4--------4-----|--3--------3--------------|
--------0-----------------|-----5--------5--------5--|-----4--------4-----------|
-----------2--------2-----|--4--------4--------------|--4--------4--------------|
--3-----------------------|--------------------------|--------------------------|
--------------------------|--------------------------|--------------------3--2--|


  Em                         Am7                        D                          
-----------0--------------|--------3--------3--------|--0h2----2--0h2----2--3-----|
-----0-----0-----0--------|--1--------1--------1-----|--3------3--3------3--3-----|
--------0--0--------------|-----0--------0--------0--|------2---------2-----------|
--------------------2-----|-----------2--------2-----|--0---------0------------0--|
-----------------------2--|--0-----------------------|----------------------------|
--0-----------0-----------|--------------------------|----------------------------|


  G           Cadd9                            G#5      Am          Am/G#        
--3-----3-----------3-----|--------3--------3-----4--|--------0-----------0-----|
-----------3--3-----3-----|--------3--------3-----4--|--1--------1--1--------1--|
-----0-----------------0--|--------------------------|-----2-----------2--------|
-----------------2--------|-----0--------0-----------|--------------------------|
--------------3-----------|--------------------------|--0--------0--------------|
--3-----------------------|--3--------3--------4-----|--------------4--------4--|


  Am/G                       G           Bm             Em                       
--------0--------0-----0--|--3-----3-----------2-----|--0--------0--------------|
--------1--------1-----1--|--3-----3-----3--------3--|--0-----0--0-----0--------|
-----2--------2-----------|-----0-----------4--------|--------0--------0--------|
--------------------2-----|-----------0--4-----------|-----2--------2--------2--|
--------------------------|--------------------------|--------------------2-----|
--3--------3--------------|--3-----------------------|--0--------0--------------|


  G           C6              G                          Fadd9                    
--3-----3------------3-----|--------3--------3-----3--|--------3--------3-----3--|
-----------3--0h1----1-----|--------3--------3-----3--|--1-----1--1-----1-----1--|
-----0------------0-----0--|--------------------0-----|-----2--------2-----------|
--------------0h2----------|-----0--------0-----------|--3--------3--------3-----|
---------------------------|--------------------------|--------------------------|
--3------------------------|--3--------3--------------|--------------------------|


  Cadd9                 Cmaj  G           C6                    Em    Gmaj7        
---------0--------0-----0--|--3-----3------------3-----|--------3-----2-----2-----|
--1h3-------1-----1-----0--|-----------3--0h1----1-----|--0--------------------0--|
------0--------0-----------|-----0------------0-----0--|-----0-----0-----0--------|
---------------------2-----|--------------0h2----------|--------2-----0-----------|
--3---------3--------------|---------------------------|--------------------------|
---------------------------|--3------------------------|--3-----------------------|


  Cmaj7                      Cdim                       Bm7                      
--0-----------0-----------|--------5--------5--------|--------5--------5--------|
-----0-----------0-----0--|--4--------4--------4-----|--3--------3--------------|
--------0-----------------|-----5--------5--------5--|-----4--------4-----------|
-----------2--------2-----|--4--------4--------------|--4--------4--------------|
--3-----------------------|--------------------------|--------------------------|
--------------------------|--------------------------|--------------------3--2--|


  Em                         Am7                        D                          
-----------0--------------|--------3--------3--------|--0h2----2--0h2----2--3-----|
-----0-----0-----0--------|--1--------1--------1-----|--3------3--3------3--3-----|
--------0--0--------------|-----0--------0--------0--|------2---------2-----------|
--------------------2-----|-----------2--------2-----|--0---------0------------0--|
-----------------------2--|--0-----------------------|----------------------------|
--0-----------0-----------|--------------------------|----------------------------|


  G                                                    Cmaj7                    
-----3-----3-----3-----3--|-----3-----3-----3----3--|--0-----------0-----------|
-----3-----3-----3-----3--|-----3-----3-----3----3--|-----0-----------0-----0--|
--------------------------|-----0-----0-----0----0--|--------0-----------------|
--------------------------|-------------------------|-----------2--------2-----|
--------0-----2-----------|--------0-----2----------|--3-----------------------|
--3-----------------3-----|--3----------------------|--------------------------|


  Cdim                       Bm7                        Em                       
--------5--------5--------|--------5--------5--------|-----------0--------------|
--4--------4--------4-----|--3--------3--------------|-----0-----0-----0--------|
-----5--------5--------5--|-----4--------4-----------|--------0--0--------------|
--4--------4--------------|--4--------4--------------|--------------------2-----|
--------------------------|--------------------------|-----------------------2--|
--------------------------|--------------------3--2--|--0-----------0-----------|


  Am7                        D                            G           Cadd9        
--------3--------3--------|--0h2----2--0h2----2--3-----|--3-----3-----------3-----|
--1--------1--------1-----|--3------3--3------3--3-----|-----------3--3-----3-----|
-----0--------0--------0--|------2---------2-----------|-----0-----------------0--|
-----------2--------2-----|--0---------0------------0--|-----------------2--------|
--0-----------------------|----------------------------|--------------3-----------|
--------------------------|----------------------------|--3-----------------------|


  G                  
--3----------------||
--3----------------||
--0----------------||
--0----------------||
--2----------------||
--3----------------||


Comments