Mctell Ralph - Streets Of London Chords & Tabs

 

Streets Of London Chords & Tabs

Mctell Ralph Chords & Tabs

Version: 2 Type: Tab 1 rating
1 star 2 stars 3 stars 4 stars 5 stars
comments

Streets Of London Tab

   
The best version I've found so far...

-*-*-*-*-*-*-*-*-*-*-*-*-*-*-*-*-*-*-*-*-*-*-*-*-*-*-*-*-*-*-*-*-*-*-*-*-*-*-*-*-


#----------------------------------PLEASE NOTE---------------------------------#
#This file is the author's own work and represents their interpretation of the #
#song. You may only use this file for private study, scholarship, or research. #
#------------------------------------------------------------------------------##

                                STREETS OF LONDON
                           As recorded by Ralph McTell
                    (From the 1970 Album SILVER CELEBRATION)


Standard Tuning
Capo: 2nd Fret

 2/2 

Intro

  C/G               G                 Am                Em
|-0---------------|-3---------------|-----------------|-------0----------|
|-----------1-----|-----------0-----|-1---------0h1---|-0---------3------|
|-------0---------|-------0---------|-------2---------|---0--------------|
|-----2--------2--|-----0--------0--|-----2-------2---|-----2--------2---|
|-3---------------|-----------------|-0-------0-------|------------------|
|---------3-------|-3-------3-------|-----------------|-0-------0--------|

  F       F6        C/G               G       G9        C/G
|-------1---------|-0---------------|-----------------|-----------------||
|-1---------3-----|-----------1-----|-----------0-----|-1---------1-----||
|---2-------------|---0---0---------|---0---2---------|-------0-------0-||
|-----3--------3--|-----2--------2--|-----0--------0--|-----2-------2---||
|-----------------|-3---------------|-----------------|-3---------------||
|-1-------1-------|---------3-------|-3-------3-------|---------3-------||



Verse

    C/G               G                 Am                Em
||--0---------------|-3-------------0-|-----------------|-0-----0----------|
||o---1-------1-----|-----------1h3---|-1---------0h1---|-----------0------|
||--------0---------|-------0---------|-------2-------2-|---0--------------|
||------2--------2--|-----0-------0---|-----2-------2---|-----2--------2---|
||o-----------------|-----------------|-0-------0-------|------------------|
||--3-------3-------|-3-------3-------|-----------------|-0-------0--------|

  F       F6        C/G               Dm/F              G       (AG)
|-------1---------|-0---------------|-------1---------|-----------------|
|-1---------3-----|---1-------1-----|-3---------3-----|-0-------1-3-----|
|---2-------------|-------0---------|---2-----------2-|---0---0-------0-|
|-----3--------3--|-----2--------2--|-----3-------3---|-----0-----------|
|-----------------|-----------------|-----------------|---------0---2---|
|-1-------1-------|-3-------3-------|-1-------1-------|-3---------------|

  C/G               G                 Am                Em
|-0---------------|-3-------0-------|-----------------|-----------------|
|-----------1-----|-----------3-----|-1---------0h1---|-0---------0-----|
|-------0---------|-------0-------0-|-------2-------2-|-------0---------|
|-----2--------2--|-----0-------0---|-----2-------2---|-----2--------2--|
|-3-------3-------|-----------------|-0-------0-------|-----------------|
|-----------------|-3-------3-------|-----------------|-0-------0-------|

  F6                C                 G9
|-------1---------|-0---------------|-----------------|
|-----------3-----|---1-------1-----|-----------0-----|
|---2-------------|-------0---------|-0-----2---------|
|-----3--------3--|-----2--------2--|-----0--------0--|
|-----------------|-----------------|-----------------|
|-1-------1-------|-3-------3-------|-3-------3-------|

  C
|-----------------|-0---------------||
|-1---------1-----|---1-------1-----||
|-------0---------|-------0-------0-||
|-----2--------2--|-----2-------2---||
|-3---------------|-3---------------||
|---------3-------|---------3-------||



Chorus
[ Tab from: http://www.guitartabs.cc/tabs/m/mctell_ralph/streets_of_london_tab_ver_2.html ]
  F                 Em                C       G6        Am      Am7/G
|-1---------------|-0---------------|-0---------------|-----------------|
|-----------1-----|-----------0-----|-----------3-----|-1-------------1-|
|-------2-------2-|-------0---------|-------0---------|-------2---2-----|
|-----3-------3---|-----2--------2--|-----2--------0--|-----2-------2---|
|-----------------|-----------------|-3-------2-------|-0---------------|
|-1-------1-------|-0-------0-------|-----------------|---------3-------|

  D9/F#   D7/F#     D7/F#              G7
|-----------------|------------------|-----------------|-------0---1-----|
|-1-----0---1-----|--------0-1-------|-0---------1-----|-3---------------|
|---2-----------2-|-(2)--------2-----|-------0-------0-|---0-------------|
|-----0-------0---|------0-----------|-----0-------0---|-----0--------0--|
|-----------------|---------------0--|---------0-------|-2---------------|
|-2-------2-------|--2-------2-------|-3---------------|---------3-------|
  C/G               G                 Am                Em
|-0---------------|-3-------0-------|-----------------|-------0---------|
|-----------1-----|-----------3-----|-1---------0h1---|-0---------3-----|
|-------0---------|-------0---------|-------2-------2-|---0-------------|
|-----2--------2--|-----0--------0--|-----2-------2---|-----2--------2--|
|-3-------3-------|-----------------|-0-------0-------|-----------------|
|-----------------|-3-------3-------|-----------------|-0-------0-------|

                                                                To Coda
  F       F6        C/G               G9                C
|-------1---------|-0---------------|-----------------|-----------------|
|-1---------3-----|---1-------1-----|-----------0-----|-1---------1-----|
|---2-----------0-|-------0-------0-|---0---2---------|-------0---------|
|-----3-----------|-----2-------2---|-----0--------0--|-----2--------2--|
|-----------------|-----------------|-----------------|-3---------------|
|-1-------1---2---|-3-------3-------|-3-------3-------|---------3-------|


  1.,3.
                                        D.S. al Coda
  G                 Am               G
|-3---------------|----------------|------------------||
|-----------0-----|-1---------0h1--|-0-----1---3-----o||
|---0---0-------0-|-------2--------|---0--------------||
|-----0-------0---|-----2-------2--|-----0--------0---||
|-----------------|-0-------0------|-----------------o||
|-3-------3-------|----------------|-3-------3--------||


  2.

  C/G               G                 Am               Em
|-0---------------|-3---------------|----------------|-------0---------|
|-----------1-----|-----------0-----|-1---------0h1--|-0---------3-----|
|-------0---------|-------0---------|-------2--------|---0-----------0-|
|-----2--------2--|-----0--------0--|-----2-------2--|-----2-------2---|
|-3---------------|-----------------|-0-------0------|-----------------|
|---------3-------|-3-------3-------|----------------|-0-------0-------|
                                                                  D.S.
  F       F6        C/G               G                 C/G
|-------1---------|-0---------------|-----------------|-----------------||
|-1---------3-----|---1-------1-----|-----------0-----|-1---------1-----||
|---2-------------|-------0---------|---0---2-------0-|-------0-------0-||
|-----3--------3--|-----2--------2--|-----0-------0---|-----2-------2---||
|-----------------|-3---------------|-----------------|-3---------------||
|-1-------1-------|---------3-------|-3-------3-------|---------3-------||



Coda

  Csus4
|-----------------|-------3-0----*|
|---------------1-|-----1---1----*|
|---0---0---0-----|---0-----0----*|
|-----3-------3---|-----3---2----*|
|-3-------3-------|-3-------3----*|
|-----------------|--------------*|



-*-*-*-*-*-*-*-*-*-*-*-*-*-*-*-*-*-*-*-*-*-*-*-*-*-*-*-*-*-*-*-*-*-*-*-*-*-*-*-*-
Comments