Mctell Ralph - Streets Of London Chords & Tabs

 

Streets Of London Chords & Tabs

Mctell Ralph Chords & Tabs

Version: 1 Type: Tab 1 rating
1 star 2 stars 3 stars 4 stars 5 stars
comments

Streets Of London Tab

   
Streets of London

Verse:
 C                        G                        Am  
|--0-------------0-------|--3-------------0-------|-----------------0-------|
|---------1--------------|---------0----------3---|--1----------------------|
|------0-------------0---|------0-----------------|----------2-----------2--|
|------------------------|------------------------|------2------------------|
|--3----------3----------|--2----------2----------|--0-----------0----------|
|------------------------|------------------------|------------------------|

Em/G                   F                      C/E
|--0-------------0-------|------------------------|-------------------------|
|------------------------|----------------1-------|--1----------------------|
|---------0--------------|--2-------2---------2---|----------0-------0------|
|------0-------------0---|-------3----------------|------2---------------2--|
|------------------------|------------------------|-------------------------|
|--3----------3----------|--1----------1----------|--0-----------0----------|

D7 3rd position(C)         G C3-------------------- C
|----------------0-------|------------------------|--0---------------0------|
|--3---------------------|--3-------------3-------|----------1--------------|
|---------5----------5---|----------4-------------|------0------------------|
|------4-----------------|-------5------------5---|---------------------2---|
|--5---------------------|------------------------|--3-----------3----------|
|-------------5----------|--3----------3----------|-------------------------|

G/B                    Am                     Em/G
|--3-------------0-------|----------------0-------|--0---------------0------|
|---------0----------3---|--1---------------------|----------0--------------|
|------0-----------------|----------2---------2---|-------0-------------0---|
|------------------------|-------2----------------|-------------------------|
|--2----------2----------|--0----------0----------|-------------------------|
|------------------------|------------------------|--3-----------3----------|

F C1------------------ C/G                    G7
|------------------------|------------------------|-------------------------|
|----------------1-------|--1-------------1-------|---------------------0---|
|--2------2----------2---|----------0---------0---|--0-------0-------2------|
|------3-----------------|-------2----------------|-------3-----------------|
|------------------------|------------------------|-------------------------|
|--1----------1----------|--3----------3----------|--3-----------3----------|
[ Tab from: http://www.guitartabs.cc/tabs/m/mctell_ralph/streets_of_london_tab.html ]
Chorus:
 C                                            F
|------------------------|------------------------|--1---------------1------|
|--1-------------1-------|----1-----------1----1--|----------1--------------|
|---------0------------0-|----------0-------------|-------2-----------------|
|------2------------2----|-------2------0----2----|--3-----------3------3---|
|--3---------------------|--3---------------------|-------------------------|
|-------------3----------|------------------------|------------------------|

 Em                    C                      Am
|--0--------------3------|--3-------------1-------|--0---------------0------|
|---------0--------------|----------0-------------|----------1--------------|
|------0-------------0---|-------0------------0---|-------2-------------2---|
|--2----------2----------|------------------------|-------------------------|
|------------------------|--3----------2----------|--0-----------0----------|
|------------------------|------------------------|-------------------------|


D7                                            G
|------------------------|------------------------|-----------------3------|
|--3-------------3-------|--3-------------1-------|----------0-------------|
|---------5----------5---|---------0--------------|--0----0-----------0----|
|------4-----------------|------4--------------3--|------------------------|
|--5---------------------|--5----------0----------|------------------------|
|-------------5----------|------------------------|--3-----------3---------|

G7                        C                        G/B
|--1---------------------|--0-------------0-------|--3---------------0------|
|---------0--------------|----------1-------------|----------0----------3---|
|------0---------0-----0-|-------0------------0---|-------0-----------------|
|------------------------|------------------------|-------------------------|
|-------------0-----2----|--3----------3----------|--2-----------2----------|
|--3---------------------|------------------------|-------------------------|

 Am                       Em/G                     F
|----------------0-------|--0-------------0-------|-------------------------|
|--1-----------------1---|---------0--------------|-----------------1-------|
|---------2--------------|------0-------------0---|--2-------2-----------2--|
|------2-----------------|------------------------|------3------------------|
|--0----------0----------|------------------------|-------------------------|
|------------------------|--3----------3----------|--1-----------1---------|

 C/G                G7                  C
|------------------|-------------------|---------------------|-\0-----------|
|-1----------1-----|----------------0--|-1----------------1--|-/1-----------|
|-------0----------|-0-----0----2------|-----------0-H-2-----|-\0-----------|
|----2----------2--|----3--------------|----0-H-2------------|-/2-----------|
|------------------|-------------------|-3-------------------|-\3-----------|
|-3--------3-------|-3--------3--------|---------------------|--------------|
Comments