Mctell Ralph - First Song Chords & Tabs

 

First Song Chords & Tabs

Mctell Ralph Chords & Tabs

Version: 1 Type: Tab 0 ratings
1 star 2 stars 3 stars 4 stars 5 stars
comments

First Song Tab

   
                                       First Song                                         


                                                  © 1972 - Words and Music by Ralph McTell
Acoustic guitar - Ralph McTell
Fingerstyle guitar.  114bpm



     D             A7         Bm   A    G        Em7              A7           
E||--2--------2------------|------------------------|----------0--------------|
B||-----3-----3-------2----|--3----2----0-----------|-------3--------------2--|
G||--------2--2-------0----|---------------0--------|-------------------0-----|
D||--0----------------2----|------------------------|----2-----------2--------|
A||----------------0-------|--2----0----------------|-------------0-----------|
E||------------------------|------------3--3--2--0--|-------------------------|


  D                                                    Bm   A    G        Em7 
--------0-----0h2-------2--|--2h-3p-2--2------------|------------------------|
-----3-----3--3------3-----|-----------3-------2----|--3----2----0-----------|
--------2-----2---2--------|-----------2-------0----|---------------0--------|
--0-----------0------------|--0--------0-------2----|------------------------|
---------------------------|----------------0-------|--2----0----------------|
---------------------------|------------------------|------------3--3--2--0--|


             A7             D                          D             A7       
----------0--------------|--------0-----0h-2-----2--|--2--------2------------|
-------3--------------2--|-----3-----3--3-----3-----|-----3-----3-------2----|
-------------------0-----|--------2-----2-----------|--------2--2-------0----|
----2-----------2--------|--0-----------0-----------|--0----------------2----|
-------------0-----------|--------------------------|----------------0-------|
-------------------------|--------------------------|------------------------|


  Bm          F#m            G           A7             D                        
--------------------------|--------------------------|--------0-----0h-2-----2--|
-----------3--------------|--------0-----------2-----|-----3-----3--3-----3-----|
--------4--------------2--|-----0-----0-----0-----0--|--------2-----2-----------|
-----4--------------4-----|--------0-----------2-----|--0-----------0-----------|
--2--------------4--------|--------------0-----------|--------------------------|
--------------2-----------|--3-----------------------|--------------------------|


  D                       Bm   A    G        Em7                           
--2h-5p---2------------|------------------------|----------------------0--|
----------3-------2----|--3----2----0-----------|-------3-----------3-----|
----------2-------0----|---------------0--------|----0-----0-----0--------|
--0-------0-------2----|------------------------|-------2-----------2-----|
---------------0-------|--2----0----------------|-------------2-----------|
-----------------------|------------3--3--2--0--|-------------------------|


  A7                         Bm/F#                      A/E                      
-----------0--------------|-----------------------2--|-----------------------0--|
--2h----3p----2-----------|--------3-----------3-----|--------2-----------2-----|
-----0-----------0-----0--|-----4-----4-----4--------|-----2-----2-----2--------|
--------2-----------2-----|--------4-----------------|--------2-----------------|
--0-----------0-----------|--2-----------------------|--0-----------------------|
--------------------------|--------------2-----------|--------------0-----------|


  G        G/F#     G/E      D                                                  
--------------------3-----|--------0-----0h2-------2--|--2h-3p-2--2------------|
-----------0-----0-----0--|-----3-----3--3------3-----|-----------3-------2----|
-----0--------0-----------|--------2-----2---2--------|-----------2-------0----|
--------0-----------------|--0-----------0------------|--0--------0-------2----|
--------------------------|---------------------------|----------------0-------|
--3--------2--------0-----|---------------------------|------------------------|


  Bm   A    G        Em7              A7             D                        
------------------------|----------0--------------|--------0-----0h-2-----2--|
--3----2----0-----------|-------3--------------2--|-----3-----3--3-----3-----|
---------------0--------|-------------------0-----|--------2-----2-----------|
------------------------|----2-----------2--------|--0-----------0-----------|
--2----0----------------|-------------0-----------|--------------------------|
------------3--3--2--0--|-------------------------|--------------------------|


                           Bm   A    G        Em7              A7           
--2h-3p-2--2------------|------------------------|----------0--------------|
-----------3-------2----|--3----2----0-----------|-------3--------------2--|
-----------2-------0----|---------------0--------|-------------------0-----|
--0--------0-------2----|------------------------|----2-----------2--------|
----------------0-------|--2----0----------------|-------------0-----------|
------------------------|------------3--3--2--0--|-------------------------|


  D                          D             A7         Bm          F#m          
--------0-----0h-2-----2--|--2--------2------------|--------------------------|
-----3-----3--3-----3-----|-----3-----3-------2----|-----------3--------------|
--------2-----2-----------|--------2--2-------0----|--------4--------------2--|
--0-----------0-----------|--0----------------2----|-----4--------------4-----|
--------------------------|----------------0-------|--2--------------4--------|
--------------------------|------------------------|--------------2-----------|


  G           A7             D                          D                     
--------------------------|--------0-----0h-2-----2--|--2h-5p---2------------|
--------0-----------2-----|-----3-----3--3-----3-----|----------3-------2----|
-----0-----0-----0-----0--|--------2-----2-----------|----------2-------0----|
--------0-----------2-----|--0-----------0-----------|--0-------0-------2----|
--------------0-----------|--------------------------|---------------0-------|
--3-----------------------|--------------------------|-----------------------|

[ Tab from: http://www.guitartabs.cc/tabs/m/mctell_ralph/first_song_tab.html ]
  Bm   A    G        Em7                             A7                       
------------------------|----------------------0--|-----------0--------------|
--3----2----0-----------|-------3-----------3-----|--2h----3p----2-----------|
---------------0--------|----0-----0-----0--------|-----0-----------0-----0--|
------------------------|-------2-----------2-----|--------2-----------2-----|
--2----0----------------|-------------2-----------|--0-----------0-----------|
------------3--3--2--0--|-------------------------|--------------------------|


  Bm/F#                      A/E                        G        G/F#     G/E    
-----------------------2--|-----------------------0--|--------------------3-----|
--------3-----------3-----|--------2-----------2-----|-----------0-----0-----0--|
-----4-----4-----4--------|-----2-----2-----2--------|-----0--------0-----------|
--------4-----------------|--------2-----------------|--------0-----------------|
--2-----------------------|--0-----------------------|--------------------------|
--------------2-----------|--------------0-----------|--3--------2--------0-----|


  D                                                    Bm   A    G        Em7 
--------0-----0h2-------2--|--2h-3p-2--2------------|------------------------|
-----3-----3--3------3-----|-----------3-------2----|--3----2----0-----------|
--------2-----2---2--------|-----------2-------0----|---------------0--------|
--0-----------0------------|--0--------0-------2----|------------------------|
---------------------------|----------------0-------|--2----0----------------|
---------------------------|------------------------|------------3--3--2--0--|


             A7             D                                                 
----------0--------------|--------0-----0h-2-----2--|--2h-3p-2--2------------|
-------3--------------2--|-----3-----3--3-----3-----|-----------3-------2----|
-------------------0-----|--------2-----2-----------|-----------2-------0----|
----2-----------2--------|--0-----------0-----------|--0--------0-------2----|
-------------0-----------|--------------------------|----------------0-------|
-------------------------|--------------------------|------------------------|


  Bm   A    G        Em7              A7             D                        
------------------------|----------0--------------|--------0-----0h-2-----2--|
--3----2----0-----------|-------3--------------2--|-----3-----3--3-----3-----|
---------------0--------|-------------------0-----|--------2-----2-----------|
------------------------|----2-----------2--------|--0-----------0-----------|
--2----0----------------|-------------0-----------|--------------------------|
------------3--3--2--0--|-------------------------|--------------------------|


  D             A7         Bm          F#m            G           A7           
--2--------2------------|--------------------------|--------------------------|
-----3-----3-------2----|-----------3--------------|--------0-----------2-----|
--------2--2-------0----|--------4--------------2--|-----0-----0-----0-----0--|
--0----------------2----|-----4--------------4-----|--------0-----------2-----|
----------------0-------|--2--------------4--------|--------------0-----------|
------------------------|--------------2-----------|--3-----------------------|


  D                          D                       Bm   A    G        Em7 
--------0-----0h-2-----2--|--2h-5p---2------------|------------------------|
-----3-----3--3-----3-----|----------3-------2----|--3----2----0-----------|
--------2-----2-----------|----------2-------0----|---------------0--------|
--0-----------0-----------|--0-------0-------2----|------------------------|
--------------------------|---------------0-------|--2----0----------------|
--------------------------|-----------------------|------------3--3--2--0--|


                            A7                         Bm/F#                    
----------------------0--|-----------0--------------|-----------------------2--|
-------3-----------3-----|--2h----3p----2-----------|--------3-----------3-----|
----0-----0-----0--------|-----0-----------0-----0--|-----4-----4-----4--------|
-------2-----------2-----|--------2-----------2-----|--------4-----------------|
-------------2-----------|--0-----------0-----------|--2-----------------------|
-------------------------|--------------------------|--------------2-----------|


  A/E                        G        G/F#     G/E      D                         
-----------------------0--|--------------------3-----|--------0-----0h2-------2--|
--------2-----------2-----|-----------0-----0-----0--|-----3-----3--3------3-----|
-----2-----2-----2--------|-----0--------0-----------|--------2-----2---2--------|
--------2-----------------|--------0-----------------|--0-----------0------------|
--0-----------------------|--------------------------|---------------------------|
--------------0-----------|--3--------2--------0-----|---------------------------|


                           Bm   A    G        Em7              A7           
--2h-3p-2--2------------|------------------------|----------0--------------|
-----------3-------2----|--3----2----0-----------|-------3--------------2--|
-----------2-------0----|---------------0--------|-------------------0-----|
--0--------0-------2----|------------------------|----2-----------2--------|
----------------0-------|--2----0----------------|-------------0-----------|
------------------------|------------3--3--2--0--|-------------------------|


  D                                                   Bm   A    G        Em7 
--------0-----0h-2-----2--|--2h-3p-2--2------------|------------------------|
-----3-----3--3-----3-----|-----------3-------2----|--3----2----0-----------|
--------2-----2-----------|-----------2-------0----|---------------0--------|
--0-----------0-----------|--0--------0-------2----|------------------------|
--------------------------|----------------0-------|--2----0----------------|
--------------------------|------------------------|------------3--3--2--0--|


             A7             Em7         A7                                    
----------0--------------|--------------------------|--2h-3p-2--2------------|
-------3--------------2--|-----3-----------------2--|-----------3-------2----|
-------------------0-----|-----0--------------0-----|-----------2-------0----|
----2-----------2--------|-----------------2--------|--0--------0-------2----|
-------------0-----------|--------------0-----------|----------------0-------|
-------------------------|--0-----2--3--------------|------------------------|


  Bm   A    G        Em7              A7             D                     
------------------------|----------0--------------|--------0--3--2--------|
--3----2----0-----------|-------3--------------2--|-----3--------3--------|
---------------0--------|-------------------0-----|--------2-----2--------|
------------------------|----2-----------2--------|--0-----------0--------|
--2----0----------------|-------------0-----------|-----------------------|
------------3--3--2--0--|-------------------------|-----------------------|


                    
------------------||
------------------||
------------------||
------------------||
------------------||
------------------||


Comments