Mcsorley Jesse - Dark World Chords & Tabs

 

Dark World Chords & Tabs

Mcsorley Jesse Chords & Tabs

Version: 1 Type: Tab 0 ratings
1 star 2 stars 3 stars 4 stars 5 stars
comments

Dark World Tab

DARK WORLD
By: JESSE MCSORLEY
[ Tab from: http://www.guitartabs.cc/tabs/m/mcsorley_jesse/dark_world_tab.html ]
  repeat 4x palm fist two
--------------------
--------------------
--5-5---------------
-7-7---5-5--5-5--2-2
------7-7--3-3--0-0-
--------------------

------------------------
------------------------
-55-55-------55-55-22-22
-77-77-55-55-55-55-22-22
-------77-77-33-33-00-00
------------------------
Comments