Mclean Don - Circus Song Chords & Tabs

 

Circus Song Chords & Tabs

Mclean Don Chords & Tabs

Version: 1 Type: Tab 0 ratings
1 star 2 stars 3 stars 4 stars 5 stars
comments

Circus Song Tab

   
#----------------------------------PLEASE NOTE---------------------------------#
#This file is the author's own work and represents their interpretation of the #
#song. You may only use this file for private study, scholarship, or research. #
#------------------------------------------------------------------------------#
From: "Ronald Staats" 
Date:          Wed, 19 Jul 1995 14:08:11 MET-1

 Circus song/ don mclean

i tabbed this one from his live album SOLO, but on the album TAPESTRY 
it sounded nearly the same. In my ears it sounds pretty good, but i not 
so sure about the base part of it. I not so good at these things. I added the 
lyrics, but i'm not a native born speaker of english. 
Please correct me if i made some mistakes. I can learn of it.

Ronald staats, Utrecht, Holland       july 1995.
internet adres: r.staats@dit.azu.nl


e|--------------------3--5--7----------------0----------0---2-----2-
b|-3---2----0------0--5--7--8---8----0h2-3----3-2---3---3---3---3---
g|---2---2----0--2-----0--0---0---0-----0--0------0---2---2---2-----
D|-0------------------0--0--0--------0--------------0---0---0-------
A|------------------------------------------------------------------
E|------------------------------------------------------------------
   cotton candy     two for a quarter, see if the fat man can guess 
your weight

 e|--------------------3--5--7----------------0------------2---
 b|-3---2----0------0--5--7--8---8----0h2-3----3-2---3---3---3-
 g|---2---2----0--2-----0--0---0---0-----0--0------0---2-------
 D|-0------------------0--0--0--------0--------------0-------0-
 A|------------------------------------------------------------
 E|------------------------------------------------------------
  a big stuffed tiger, is what i bought her, and i going home 
cause its late.

[ Tab from: http://www.guitartabs.cc/tabs/m/mclean_don/circus_song_tab.html ]
          G          A7           Fm            D7  
 e|-------------3-------3---------------2---------2--- 
 b|-----------0------------2----------2-------------1-
 g|---------0---------2-------------2-----------2-----
 D|-------------------------------------------0-------
 A|----------------0----------------------------------
 E|------3-----------------------2--------------------
   and everyone knows that the clowns arn't happy

 
          G           A7            D           D7  
 e|-------------3-------3---------------2---------2---
 b|-----------0------------2----------3-------------1-
 g|---------0---------2-------------2-----------2-----
 D|-------------------------------0-----------0-------
 A|----------------0----------------------------------
 E|------3--------------------------------------------
     and everyone knows that the people don't care

         G            A7            D        B7
 e|-------------3-------3---------------2----2---------------------------
 b|-----------0------------2----------3------0---------------------------
 g|---------0---------2-------------2--------2---------------------------
 D|----------------------------------------------------------------------
 A|----------------0--------------0----------2---------------------------
 E|------3---------------------------------------------------------------
   and I only laugh at the way that their acting 

       E7       A
 e|---0--0---------------------------------------------------------------
 b|---3--3------2--0-----------------------------------------------------
 g|---1--1------2----2--0------------------------------------------------
 D|-------------2--------------------------------------------------------
 A|-------------0--------------------------------------------------------
 E|---0--0---------------------------------------------------------------
  but i'm so sick i just don't dare to


 e|--------------------3--5--7----------------0-------------0h2----------
 b|-3---2----0------0--5--7--8---8----0h2-3----3-2---3----3-----3--------
 g|---2---2----0--2-----0--0---0---0-----0--0------0----2----------------
 D|-0------------------0--0--0--------0--------------0----------0--------
 A|----------------------------------------------------------------------
 E|----------------------------------------------------------------------


 
Comments