Mclachlan Sarah - Ice Chords & Tabs

 

Ice Chords & Tabs

Mclachlan Sarah Chords & Tabs

Version: 1 Type: Bass Tab 0 ratings
1 star 2 stars 3 stars 4 stars 5 stars
comments

Ice Bass Tab

   
Bass Tab "Ice" Sarah McLaughlin

this is the version from the "freedom sessions", not from "fumbling towards
ecstacy".  I really liked this riff, and so i decided to transcribe for
everyone.  i think you will find it pretty easy.... enjoy!

/=slide
h=hammer-on

riff 1
g---------------------------------------------------------------------------
d---------------------------------------------------------------------------
a---------------------------------------------------------------------------
e---14-14-/-2-2-/-5-5-7-9-9-9-7-5-5-5h7-7-----(repeat)--------------------
(or some variation of this)

riff 2
g---------------------------------------------------------------------------
d---------------------------------------------------------------------------
a---6-6-6-6-4-4-------------------------------------------------------------
e----------------4-4-/-8-8-8-8-2-2-/-5-5-7----------------------------------
[ Tab from: http://www.guitartabs.cc/tabs/m/mclachlan_sarah/ice_btab.html ]
riff 3
g---------------------------------------------------------------------------
d---------------------------------------------------------------------------
a---4-4-4-4-3-3-3-3---------------------------------------------------------
e--------------------2-2-/-5-5-/-7-7-/-9-9----------------------------------

riff 4
g---------------------------------------------------------------------------
d------------------------------------1-1-1-1-1-1-1-1------------------------
a-------------------3-3-3-3-3-3-3-3------------------3-3--------------------
e--2-2-2-2-2-2-2-2----------------------------------------2-2-2-2-----------


this was faithfully submitted by MarĂ­a Alvarez because Sharon said to...
and if you have any suggestions/corrections please contact:
Maria_Alvarez@student.castilleja.pvt.k12.ca.us

thanks!
***********************************************************
                                        Castilleja School
***********************************************************



Comments