Mclachlan Sarah - I Will Remember You Chords & Tabs

 

I Will Remember You Chords & Tabs

Mclachlan Sarah Chords & Tabs

Version: 1 Type: Tab 1 rating
1 star 2 stars 3 stars 4 stars 5 stars
comments

I Will Remember You Tab

   
#----------------------------------PLEASE NOTE---------------------------------#
#This file is the author's own work and represents their interpretation of the #
#song. You may only use this file for private study, scholarship, or research. #
#------------------------------------------------------------------------------#
                    I Will Remember You
                    ~~~~~~~~~~~~~~~~~~~

lyrics by Sarah McLachlan; music by Seamus Egan
from the Brothers McMullen soundtrack


Please note:
-----------
I often found it hard to tell the qualities of the chords:
the basic chords are right, but whether they are 7th
chords, suspended chords, or chords with altered bass notes
are up to the player to interpret.


Some of the chord forms:
-----------------------

  Asus2  Dsus2  E/A  Dsus2/F#    Bm7    E/G#
E--0---|--0---|--0--|--0-------|-(2)--|--x---|
B--0---|--3---|--0--|--3-------|--3---|--x---|
G--2---|--2---|--1--|--2-------|--2---|--x---|
D--2---|--0---|--2--|--0-------|--4---|--2---|
A--0---|------|--0--|--0-------|--2---|--2---|
E------|------|-----|--2-------|------|--4---|

**Note** the Riffs A to M are tabbed at the end.

CHORUS
======
A        Dsus2     E/A
I will remember you
A          Dsus2/F#    E7
Will you remember   me?
      Asus2    Dsus2/F# E        Bm7 (Riff A)    
Don't let your life     pass you by
A        Dsus2/F#  E        A
Weep not for the   memories

Verse 1
-------

CHORUS (without Riff A)
======

Instrumental section
====================
(Riff E) A  Dsus2/F# (Riff F)  E/A; A  Dsus2/F# (Riff F)  E7 A


Verse 2
-------

CHORUS 
======

END CHORUS
==========


+++++++
+RIFFS+
+++++++

Riff A
[ Tab from: http://www.guitartabs.cc/tabs/m/mclachlan_sarah/i_will_remember_you_tab.html ]
    Bm barre chord      A           D          E
    1   2   3 &  4 &    1   2    3  & 4 &    1 & 2   & 3  & 4
E---------------------|--------------------|--------------
B-------2-3-----------|-----2p0---------0--|---------0----
G-------------4\sl\2--|---------------2----|---1-1h2---2--
D-----4---------------|---2---------4------|--------------
A---2-----------------|-0------------------|--------------
E---------------------|--------------------|--------------

             A
    &        1 & 2  &   1   to Verse 1
E-------|-------------|----
B-------|-------------|----
G-------|-------------|----
D-------|--2h4-2----2-|----
A---2h4-|--------4----|-0--
E-------|-------------|----


Riff B              Riff C              Riff D

E-----------------|-------------------|----------------|
B-----------------|-------------------|--3-3---2-2--0--|
G--1h2p1-------2--|-------------------|--4-4---2-2--1--|
D---------2h4-----|--2h4--2h4p2-------|----------------|
A-----------------|--------------4-0--|----------------|
E-----------------|-------------------|----------------|


Riff E            Riff F      Riff G      Riff H

E---------------|------------|----------|----------------|
B---------------|------------|----------|----------------|
G---------------|------------|------2---|----------------|
D------2h4-2----|------------|--2h4-----|------2h4p2-----|
A--2h4--------0-|------0-----|----------|--2h4-------4-0-|
E---------------|--0h2----2--|----------|----------------|

Riff I            Riff J

E---------------|--------------|
B---3-3p2-------|--3-3p2--0----|
G---4-4p2--2--4-|--4-4p2--1--2-|
D---------------|------------2-|
A---------------|--------------|
E---------------|--------------|

Riff K         Riff L (piano)  Riff M

E------------|-----12----12---|--------------|
B------------|--10----10---10-|--2h3---------|
G------4--2--|----------------|------2h4-2---|
D--2h4-------|----------------|------------2-|
A------------|----------------|--------------|
E------------|----------------|--------------|



Additions to the version originally by Villafranc@aol.com
This version by Derek T. Chubry (b7k5@musicb.mcgill.ca)

P.S.  If you download this and like it, please send me a note.
If you think it bites (I know IÕve missed a couple of riffs),
could you point out what I should change.
Thanks and enjoy!
Comments