Mclachlan Sarah - Good Enough Chords & Tabs

 

Good Enough Chords & Tabs

Mclachlan Sarah Chords & Tabs

Version: 1 Type: Tab 0 ratings
1 star 2 stars 3 stars 4 stars 5 stars
comments

Good Enough Tab

   
#----------------------------------PLEASE NOTE---------------------------------#
#This file is the author's own work and represents their interpretation of the #
#song. You may only use this file for private study, scholarship, or research. #
#------------------------------------------------------------------------------#
From: arabella@mail.utexas.edu (Arabella Clauson)

--------------------------------
"Good Enough" by Sarah Mclachlan
--------------------------------
from "FUMBLING TOWARDS ECSTASY"

Here's the intro:
the "/" means slide up to the next note

E --------------------------------------------------------------------------
B -----------3------2------------------------2/3------------------------2/3-
G --4/6------2------2-----------2------------0-------------2------------0---
D --2--------4------2---------2------2-------2-----------2------2-------2---
A --0--------0------2----0---------------0---0------0---------------0---0---
E --------------------------------------------------------------------------

-- -- -- -- -- --
Arabella Clauson
arabella@mail.utexas.edu
http://ccwf.cc.utexas.edu/~arabella/index.html



typing Derek's note: I downloaded Scott's version of the song and found that some of
the chords didn't sound quite right.  I am offering another way          way
of playing the song.  The voicings of chords I suggest aren't exactly as on
the CD, but are ones I thought sounded nice.  If they prove to be too   t me
awkward, just play the straight chord (e.g., B instead of B/D#).
Please feel free to contact me if you have any questions or comments.
Enjoy!

[ Tab from: http://www.guitartabs.cc/tabs/m/mclachlan_sarah/good_enough_tab.html ]
                 "Good Enough" by Sarah McLachlan
                 =================================

Chord voicings I tried:

E/A       D/A       Bmin      C#min       D
                  (open e)   (open e)   (open e)
E|-X--    E|-X--    E|-0--    E|-0--    E|-0--
B|-0--    B|-3--    B|-3--    B|-5--    B|-3--
G|-1--    G|-2--    G|-4--    G|-6--    G|-2--
D|-2--    D|-4--    D|-4--    D|-6--    D|-4--
A|-0--    A|-0--    A|-2--    A|-4--    A|-5--
E|-X--    E|-X--    E|-X--    E|-X--    E|-X--


B/D#        e       C#min6       D*       B/D#     e*
(open e) (open e)
E|-0--    E|-0--    E|-5--    E|-2--    E|-X--  E|-4--
B|-4--    B|-5--    B|-5--    B|-3--    B|-4--  B|-5--
G|-4--    G|-4--    G|-6--    G|-2--    G|-4--  G|-4--
D|-4--    D|-6--    D|-X--    D|-4--    D|-4--  D|-6--
A|-6--    A|-7--    A|-4--    A|-5--    A|-6--  A|-7--
E|-X--    E|-X--    E|-X--    E|-X--    E|-X--  E|-X--



Intro:
=====
   1.......2..3..4   1..2   1.....2....3....4
E|-----------------|------|-----------------------|
B|-0---h2-----3----|-2----|-----------------------|
G|-0---h2-----2----|-2----|-----2----0---0---0---0|
D|-0---h2-----4----|-2----|---2-----2-------4---4-|
A|-0(let ring)-----|-0----|-0---------------------|
E|(rake)-----------|------|-----------------------|

 1.....2....3....4
-----------------------|
-----------------------|
-----2----0---0--------|
---2-----2-------4---4-|
-0---------------------|
-----------------------|


P.S.:  The day I worked on this, it was 30 degrees Celsius and really humid.
       I started to work on the solo, but was getting too hot.  If anyone is
interested in learning it, let me know and I'll work on it.
Comments