Mcfly Marty And The Starlighters - Johnny B Goode Chords & Tabs

 

Johnny B Goode Chords & Tabs

Mcfly Marty And The Starlighters Chords & Tabs

Version: 2 Type: Tab 0 ratings
1 star 2 stars 3 stars 4 stars 5 stars
comments

Johnny B Goode Tab

this is part of the version played in Back to the Future, it is all 
right, but i haven't tabbed the solo yet:

e---------5-----5-----5---5----------------------------------
B---------5-5-5-5-5-5-5-5-5-8-7-5----------------------------
G-----5h6-------------------------5h6-6-6-6-----6-----6------
D---7---------------------------------7-5-7-7-7-7-7-7-7-7----
A------------------------------------------------------------
E------------------------------------------------------------


[ Tab from: http://www.guitartabs.cc/tabs/m/mcfly_marty_and_the_starlighters/johnny_b_goode_tab_ver_2.html ]
e------------------5-----5-----5-----5-----5-----5-----5-----
B------------------5-----5-----5-----5-----5-----5-----5-----
G--5-6-7-5b7-7-7b9---7b9---7b9---7b9---7b9---7b9---7b9-------
D------------------------------------------------------------
A------------------------------------------------------------
E------------------------------------------------------------



e------5-----5-----5-----5---8-7-5-----------5---------------
B------5-----5-----5---------------8-7-5-----5---------------
G--7b9---7b9---7b9---7b9-----------------5h6---h7p5h6-6-6-6--
D-----------------------------------------------------7-7-7--
A------------------------------------------------------------
E------------------------------------------------------------



e-------------------------]
B-------------------------]
G--5-6-7-5-6-7-5h6-6-6-6--]
D------------------7-7-7--]
A-------------------------]
E-------------------------]

Corrections are welcom to RaynorHawaii9@aol.com
Comments