Mcfly - Unsaid Things Chords & Tabs

 

Unsaid Things Chords & Tabs

Mcfly Chords & Tabs

Version: 2 Type: Tab 0 ratings
1 star 2 stars 3 stars 4 stars 5 stars
comments

Unsaid Things Tab

   
McFly
Unsaid Things
Standard Tuning (EADGBe)

x = Mute string
h = Hammer on

I'd say this is 97% correct, some of the chords may not be perfect but it sounds
alright. PM me with any comments/complaints...

Chords:


Am:	|--5--|
	|--5--|
	|--5--|
	|--7--|
	|--7--|
	|--5--|


B:	|--x--|
	|--4--|
	|--4--|
	|--4--|
	|--2--|
	|--x--|


C:	|--x--|
	|--5--|
	|--5--|
	|--5--|
	|--3--|
	|--x--|


D:	|--x--|
	|--7--|
	|--7--|
	|--7--|
	|--5--|
	|--x--|


Dm:	|--5--|
	|--6--|
	|--7--|
	|--7--|
	|--5--|
	|--x--|







D#:	|--x--|
	|--8--|
	|--8--|
	|--8--|
	|--6--|
	|--x--|


E:	|--0--|
	|--0--|
	|--1--|
	|--2--|
	|--2--|
	|--0--|


Em	|--7--|
	|--8--|
	|--9--|
	|--9--|
	|--7--|
	|--x--|


F:	|--1--|
	|--1--|
	|--2--|
	|--3--|
	|--3--|
	|--1--|


F#m:	|--2--|
	|--2--|
	|--2--|
	|--4--|
	|--4--|
	|--2--|


G:	|--3--|
	|--3--|
	|--4--|
	|--5--|
	|--5--|
	|--3--|

Gm:	|--3--|
	|--3--|
	|--3--|
	|--5--|
	|--5--|
	|--3--|




Verse 1:

This girl that moved just up the road from me_________
G		   G	                 B

She had the nicest legs I've ev_er seen
Em           Em          	C       D D

And back then

She wrote me letters just to say she loved me_________
G		   G              B

But now her face is just a mem_or_y
Em          Em             C     D D

Now that 

Seven years have gone And I've grown up but she's moved on
Am 					  F

And somehow I'm still holding on to her_________
		D				G	  D#

Chorus:

I've	  still    got	so 	ma__ny  un__said  things that I wanna say
C	    C	      C     C	E   E   E    E    F                   F

And I just can't wait another day	I wish she knew________
F           D                  D	  	       G      D#
[ Tab from: http://www.guitartabs.cc/tabs/m/mcfly/unsaid_things_tab_ver_2.html ]
I    still  wait  up 	won__der__ing if 	she will remember me    
C      C     C    C	E     E    E  E    F                F

But there's no way for me to know
F               D   D  D  D   G

Bridge 1:

C	D


Verse 2:

Now she's got pregnant with her baby 
G		   G	               B

It feels like she's slipping away from me
Em           Em          	C       D D

Now that

She's getting married I'm in misery_________
G		   G	             B

Cause her fi__ance is so much bigger then me
Em           Em          	C       D D

Cause he works out a lot And there's not much that he ain't got
Am 					  F

And right now I'm losing the plot along with her________
			D				G	  D#

Bridge 2:

And I want her to know
G      F#m         Em

Before she's married and has her baby
Em		   Em                 F

That I need her________
F		D#  C  D# D#

Solo:

|-------------------------------|----------------------------------|
|-------------------------------|----------------------------------|
|-------------------------------|----------------------------------|
|--9--10--10h12--10--9--10------|-----9--10--10h12--10--9--10------|
|---------------------------12--|--12--------------------------12--|
|-------------------------------|----------------------------------|

|------------------------------------------|-----------------------|
|------------------------------------------|-----------------------|
|-----9--10--12h14--12--10-----12--10------|--9--10--10h12--12h14--|
|--12----------------------12----------12--|-----------------------|
|------------------------------------------|-----------------------|
|------------------------------------------|-----------------------|


Order of song:

Verse 1
Chorus
Bridge 1
Verse 2
Chorus
Bridge 1
Bridge 2
Solo
Chorus
End chords:	D	Dm	C
Comments