Mcfly - Ultraviolet Chords & Tabs

 

Ultraviolet Chords & Tabs

Mcfly Chords & Tabs

Version: 2 Type: Tab

Ultraviolet Tab

Okay this is my first tab! I'm Emma and I'm 14...and I've tabbed this out from the
official Guitar, Piano and Voice book of Wonderland, so it sounds pretty accurate!
Darn notations...If theres anything wrong with it just email me at emdobz@hotmail.com
and I'll be happy to get it sorted out =)


Intro...

Basically theres two guitars, one which is arpeggio-ing the chords in the background,
and the other which isnt really doing very much, but you can still hear it. I've done
it with two guitars because its difficult to do it by yourself as the notes are a stretch
to get to! This is played for the intro, then for the first verse up to the first chorus.

Guitar 1.
[ Tab from: http://www.guitartabs.cc/tabs/m/mcfly/ultraviolet_tab_ver_2.html ]
e|----------------2-------------------------||
B|------------1-------1-------1-------------||
G|--------2---------------2-----------------||
D|----0-------------------------------------||
A|------------------------------------------||
E|------------------------------------------||

e|----------------3-------------------------||
B|------------1-------1-------1-------------||
G|--------2---------------2-----------------||
D|----0-------------------------------------||
A|------------------------------------------||
E|------------------------------------------||


Guitar 2.
Listen for timing. Slide along the string for better effect.

e|---------------------------------------------||
B|---------------------------------------------||
G|---------------------------------------------||
D|----4---5---7---10---4---5---4---------------||
A|---------------------------------------------||
E|---------------------------------------------||

This repeats, and on the 4th time it stops at 7.
Then it goes onto the chorus!

Hope that helps anyone.