Mcfly - Ultraviolet Chords & Tabs

 

Ultraviolet Chords & Tabs

Mcfly Chords & Tabs

Version: 1 Type: Tab 0 ratings
1 star 2 stars 3 stars 4 stars 5 stars
comments

Ultraviolet Tab

hey im well.. emily , im 13 and ...i hope this is ok for you
listen to the song for timing though: email me :bustedemily@hotmail.com
[ Tab from: http://www.guitartabs.cc/tabs/m/mcfly/ultraviolet_tab.html ]
e|-----------------2--------------------||
B|------------3--------3------3---------||
G|--------2----------------2------------||
D|----0---------------------------------||
A|--------------------------------------||
E|--------------------------------------||


e|---------------3----------------------||
B|-----------3------3--------3----------||
G|-------2---------------2--------------||
D|----0---------------------------------||
A|--------------------------------------||
E|--------------------------------------||
Comments