Mcfly - Ultraviolet Chords & Tabs

 

Ultraviolet Chords & Tabs

Mcfly Chords & Tabs

Version: 2 Type: Bass Tab

Ultraviolet Bass Tab

Intro

G -----------------------|
D -----------------------|
A -5----5----5----5------|
E --------------------5--|

Nothing goes to plan.....

G --------11---------12--------------------------------------------|
D -0---10-----0---10---       X6 (10=FRET 10 11=FRET 11 12=FRET 12-|
A ---9----------9--------------------------------------------------|
E -----------------------------------------------------------------|

CHORUS - These summer girls...

G ---------------------------|
D ---------------------------|
A --------00-000--55-44--222-|
E -33-333--------------------|

G --------------------------|
D ------------------------3-|
A ------------------5--5----|
E -00-000--55-555-----------|


Missus Halloween.....

G --------------------------------|
D --------------------------------|
A -555555----555555----555555--33-|
E --------33--------33------------|

G --------------------------------|
D --------------------------------|
A --------33--------33---55555555-|
E -333333----333333---------------|

G --------11---------12-|
D -0---10-----0---10----|
A ---9----------9-------|
E ----------------------|

REPEAT CHORUS

The nights go on and on......

G --------------------------|
D --------------------------|    X3
A -55-3-55---33------55-----|
E ---------------33---------|

G --------------------------|
D --------------------------|
A --333---------------------|
E --------333---------------|

So pinch me I must be dreaming...........
[ Tab from: http://www.guitartabs.cc/tabs/m/mcfly/ultraviolet_btab_ver_2.html ]
G ----------------------------|
D ----------------------------|
A -2-2-2-2-2-2-4-5------------|
E ----------------------------|

G ----------------------------------|
D ----------------------------------|
A ----------------------------------|
E 5-5-5-5-5-5-5-5---3-3-3-3---2-2-2-|

G ---------------|
D ---------------|    X2
A --99--77-------|
E ----------5----|

Kissing her lips at midnight.....

G ----------------------------|
D ----------------------------|
A -2-2-2-2-2-2-4-5------------|
E ----------------------------|

G ------------------------------------|
D ------------------------------------|
A ------------------------------------|
E 5-5-5-5-5-5-5-5---3-3-3-3---5-5-5-5-|


The nights go on and on......

G --------------------------|
D --------------------------|    X3
A -55-3-55---33------55-----|
E ---------------33---------|

G --------------------|
D --------------------|
A -5----5----5----5---|
E --------------------|

She's looking good tonight......

G --------11---------12----------------------------------------------|
D -0---10-----0---10---       X6/7 (10=FRET 10 11=FRET 11 12=FRET 12-|
A ---9----------9----------------------------------------------------|
E -------------------------------------------------------------------|

REPEAT CHORUS

The nights go on and on......

G --------------------------|
D --------------------------|    X3
A -55-3-55---33------55-----|
E ---------------33---------|

G --------------|
D --------------|
A --33----------|
E -----33-------|