Mcfly - Too Close For Comfort Chords & Tabs

 

Too Close For Comfort Chords & Tabs

Mcfly Chords & Tabs

Version: 2 Type: Bass Tab

Too Close For Comfort Bass Tab

McFly 
Too Close For Comfort (Bass)
Tuning: Standard
Transcribed by Soch Hean

Intro:
|------------------------------------|
|------------------------------------|
|--------12--10====s9-------12--10---|
|--8s10----------------8s10----------| (x2)

|--------|
|--------|
|--------|
|--15\---|

|----------------------------------------------------------|
|----------------------------------------------------------|
|----------7----------------------------7------------------|
|-0-0-0-0------0-0-0-0--3-5-2--0-0-0-0------0-0-0-0--3-5-2-|

Verse: (0:23)
|--------------------------------------------------------------------|
|--------------------------------------------------------------------|
|--------------3------------5----------3-----------------------------|
|-0-----------------------------------------------3---------3--5--2--|

|-----------------------------------------------------------------|
|-----------------------------------------------------------------|
|--------------3------------5----------3--------------------------|
|-0-----------------------------------------------3-3-3-3-3-3-3---|

Chorus:
|----------------------------------------------------------------------|
|----------------------------------------------------------------------|
|-3--------3--5--------5--5h7--7-7-5h7-7-7--7-5h7-7-7--7-5h7-7-7-7-7---|
|--------3-----------5-------------------------------------------------|

|------------------------------------------------------------|
|------------------------------------------------------------|
|-3-------3--5-----5-5---------------------------------------|
|-------3--------------3-3-3-3-3-3-3-3-3-3-------------------|

|----------------------------------------------------------------------|
|----------------------------------------------------------------------|
|-3--------3--5--------5--5h7--7-7-5h7-7-7--7-5h7-7-7--7-5h7-7-7-7-7---|
|--------3-----------5-------------------------------------------------|

|-----------------|
|-----------------|
|-3-------3--5----|
|-------3---------|

|----------------------------------------------------------|
|----------------------------------------------------------|
|----------7----------------------------7------------------|
|-0-0-0-0------0-0-0-0--3-5-2--0-0-0-0------0-0-0-0--3-5-2-|

Verse: (1:33)
|--------------------------------------------------------------|
|-------------------------------------------------------7-5-4--|
|----------7-----------7-9-10--3------3--3-5-7-5--5-5-5--------|
|-0-0-0-0------0-0-0-0-----------------------------------------|

|---------------------------------|
|---------------------------------|
|-3---3-5-7-----------------------|
|-----------3-------------3-5-2---|

|------------------------------------------------------------|
|-----------------------------------------------------7-5-4--|
|----------7-----------7-9-10--3-------3-5-7-5--5-5-5--------|
|-0-0-0-0------0-0-0-0---------------------------------------|

|---------------------------------|
|---------------------------------|
|-3---3-5-7-----------------------|
|-----------3-3-3-3-3-3-3-3-3-3-3-|

Chorus: (2:04)
|----------------------------------------------------------------------|
|----------------------------------------------------------------------|
|-3--------3--5--------5--5h7--7-7-5h7-7-7--7-5h7-7-7--7-5h7-7-7-7-7---|
|--------3-----------5-------------------------------------------------|

|------------------------------------------------------------|
|------------------------------------------------------------|
|-3-------3--5-----5-5---------------------------------------|
|-------3--------------3-3-3-3-3-3-3-3-3-3-------------------|
[ Tab from: http://www.guitartabs.cc/tabs/m/mcfly/too_close_for_comfort_btab_ver_2.html ]
|----------------------------------------------------------------------|
|----------------------------------------------------------------------|
|-3--------3--5--------5--5h7--7-7-5h7-7-7--7-5h7-7-7--7-5h7-7-7-7-7---|
|--------3-----------5-------------------------------------------------|

|-----------------|
|-----------------|
|-3-------3--5----|
|-------3---------|

Interlude: (2:33)
|----------------------------------------------------------------------|
|---------------------------------------5-5-5-------5-5-5-------7-7-7--|
|----------7-7-7-----------7-7-7--3-3-3-------3-3-3-------5-5-5--------|
|-0-0-0-0---------0-0-0-0----------------------------------------------|

|--------------------------------------------------------------------|
|----------------------------------------------------5-5-5-------5---|
|-6-6-6-6-6-6-----------7-7-7-----------7-7-7--3-3-3-------3-3-3-----|
|--------------0-0-0-0---------0-0-0-0-------------------------------|

|-7--6----------------------------------------------------------|
|---------------------------------------------------------------|
|-------2-2-2s14-14-14---777777-666666-555555-444444--3------5--|
|---------------------------------------------------------------|

Slow Chorus:(3:09)
|--------------------------------------------------------------|
|-10------12------14-------10-------12-------------------------|
|-----------------------------------------10-10-10-10-10-10-10-|
|--------------------------------------------------------------|

|------------------------------------------------------------|
|------------------------------------------------------------|
|------------------------------------------------------------|
|-8\--------10\-----------3s17\\-----------------------------|

Chorus: (3:28)
|-----------------------------------------------------------|
|-----------------------------------------------------------|
|---------7-7-7----------7-7-7---3-3-3-3-3-3-5-5-5-5-5-5----|
|-0-0-0-0--------0-0-0-0------------------------------------|

|-----------------------------------|
|-----------------------------------|
|-----------------------------------|
|-3-3-3-3-3-3-3s15-15-15-15-15-15---|

|----------------------------------------------------------------------|
|----------------------------------------------------------------------|
|-3--------3--5--------5--5h7--7-7-5h7-7-7--7-5h7-7-7--7-5h7-7-7-7-7---|
|--------3-----------5-------------------------------------------------|

|------------------------------------------------------------|
|------------------------------------------------------------|
|-3-------3--5-----5-5---------------------------------------|
|-------3--------------3-3-3-3-3-3-3s15-15-15-15-15-15-15----|

|------------------------------------------------------------|
|------------------------------------------------------------|
|-15-15-15-15-15-15-15-15-15-15-15-15-17-17-17-17-17-17-17---|
|------------------------------------------------------------|

|--------------------------------------------------------------|
|--------------------------------------------------------------|
|-17-17-17-17-17-----------7-7-7----------7-7-7----3------3--5-|
|------------------0-0-0-0--------0-0-0-0---------------3------|

Outro: (4:10)
|------------------------------------------------------------|
|------------------------------------------------------------|
|-10-----9--------12-10----------12-10--10-10-10-10-9--------|
|------------8s10-----------8s10-----------------------------|

|---------------------------------------------------|
|---------------------------------------------------|
|------12-10-------------------10\------------------|
|-8s10------------------------------------0---------|

Legend:
s - slide
h - hammeron