Mcfly - Too Close For Comfort Chords & Tabs

 

Too Close For Comfort Chords & Tabs

Mcfly Chords & Tabs

Version: 1 Type: Bass Tab

Too Close For Comfort Bass Tab

   
intro:
G-------------------                     G-----------------|
D-------------------                     D-----------------|
A-0h12-14-0h12-14p0-                     A-----------------|
E------------------- (x by times needed) E-4-3-2-1-4-3-2-1-|

Verse:

G-----------------------------|
D-----------------------------|
A-----------------------------|
E-2-4-5-3-4-3-2-1(x3)-11111---|

Chorus:

G-----------------------------    G--------------------------|
D-----------------------------    D--------------------------|
A-2-2-3-4-5-5-4-3-2-----------    A--------------------------|
E-------------------1-1-1-1-1- x6 E--4-3-2-1-4-3-2-1-4-3-2-1-|

Verse:

G-----------------------------|
D-----------------------------|
A-----------------------------|
E-2-4-5-3-4-3-2-1(x3)-11111---|

riff:
[ Tab from: http://www.guitartabs.cc/tabs/m/mcfly/too_close_for_comfort_btab.html ]
G----------------------------------------------|
D----------------------------------------------|
A----------------------------------------------|
E-000000-22222-33333-44444-55555-------4321----|

G------------------------------------------|
D--2/10-------------------------------10\2-|
A------------------------------------------|
E-----------444444-33333-22222-11111-------|

G------------------------------|
D-333-444-555-666--------------|
A------------------------------|
E------------------1-1-1-1-1-1-|

Chorus:

G-----------------------------|
D-----------------------------|
A-2-2-3-4-5-5-4-3-2-----------|
E-------------------1-1-1-1-1-| x6

Intro:
G-------------------|
D-------------------|
A-0h12-14-0h12-14p0-|
E-------------------|

any problem email me @ dingdong_83@hotmail.co.uk