Mcfly - That Girl Chords & Tabs

 

That Girl Chords & Tabs

Mcfly Chords & Tabs

Version: 5 Type: Tab 0 ratings
1 star 2 stars 3 stars 4 stars 5 stars
comments

That Girl Tab

ARTIST: McFLY
SONG: THAT GIRL
ALBUM: ROOM ON THE THIRD FLOOR
TABBED BY: LEON JENKINS
STANDARD TUNNING!

THIS IS SUCH A COOL McFLY SONG! THE WHOLE SONG IS TABBED OUT FOR U RIGHT HERE!
IF U NEED ANY HELP OR TIPS CONTACT ME AT ljenkins040@aol.com
THANK YOU! :)

INTRO:

e|-----------11-11----------9-9---------4-----------7-6-4-----------|
B|--------11-11-11--------9-9-9-----4-6-4-6-4-4-6-4-------7-4-------|
G|--11-12------------9-10---------5-------6-4-----------------7-6-4-|
D|------------------------------------------------------------------|
A|------------------------------------------------------------------|
E|------------------------------------------------------------------|

   VERSE:
e|------------------------------------------------------------------|
B|------------------------------------------------------------------|
G|-----------------------6-6-x-x-6--6-6-x-x-------------------------|
D|-6-6-x-x-6--6-6-x-x----6-6-x-x-6--6-6-x-x----6-6-x-x-6--6-6-x-x---|
A|-6-6-x-x-6--6-6-x-x----4-4-x-x-4--4-4-x-x----6-6-x-x-6--6-6-x-x---|
E|-4-4-x-x-4--4-4-x-x--------------------------4-4-x-x-4--4-4-x-x---|

e|-----------11-11-9-9----------------------------------------------|
B|---------------------13-13-11-11-9~-------------------------------|
G|-8-8-8-8----------------------------------------------------------|
D|-8-8-8-8----------------------------------------------------------|
A|-6-6-6-6----------------------------------------------------------|
E|------------------------------------------------------------------|

REPEAT THE CHORD PATTERN AND LEAVE THE
 RIFFY THING OUT SECOND TIME AROUND!


PLAYED AT THE END OF VERSES:

e|-8---8-6---6--4-4-4-4-4-4-4-4-4---|
B|---4-----4----4-4-4-4-4-4-4-4-4---|
G|----------------------------------|
D|----------------------------------|
A|----------------------------------|
E|----------------------------------|

CHORUS:

e|------------------------------------------------------------------|
B|------------------------------------------------------------------|
G|-----------------------6-6-x-x-6--6-6-x-x-------------------------|
D|-6-6-x-x-6--6-6-x-x----6-6-x-x-6--6-6-x-x----6-6-x-x-6--6-6-x-x---|
A|-6-6-x-x-6--6-6-x-x----4-4-x-x-4--4-4-x-x----6-6-x-x-6--6-6-x-x---|
E|-4-4-x-x-4--4-4-x-x--------------------------4-4-x-x-4--4-4-x-x---|

e|------------------------------------------------------------------|
B|------------------------------------------------------------------|
G|-8-8-8-8----------------------------------------------------------|
D|-8-8-8-8-------------------------------------------- -------------|
A|-6-6-6-6----------------------------------------------------------|
E|------------------------------------------------------------------|

e|------------------------------------------------------------------|
B|------------------------------------------------------------------|
G|-----------------------6-6-x-x-6--6-6-x-x-------------------------|
D|-6-6-x-x-6--6-6-x-x----6-6-x-x-6--6-6-x-x----6-6-x-x-6--6-6-x-x---|
A|-6-6-x-x-6--6-6-x-x----4-4-x-x-4--4-4-x-x----6-6-x-x-6--6-6-x-x---|
E|-4-4-x-x-4--4-4-x-x--------------------------4-4-x-x-4--4-4-x-x---|

e|------------------------------------------------------------------|
B|------------------------------------------------------------------|
G|-8-8-8-8---6-6-6-6---8-8-8-8--------------------------------------|
D|-8-8-8-8---6-6-6-6---8-8-8-8--------------------------------------|
A|-6-6-6-6---4-4-4-4---6-6-6-6--------------------------------------|
E|------------------------------------------------------------------|


VERSE 2:

e|-------------------|
B|-------------------|
G|-------------------|
D|-5/6-6-6---5/6-6-6-|
A|-5/6-6-6---5/6-6-6-|
E|-3/4-4-4---3/4-4-4-|

----------------------------------------------------------|
----------------------------------------------------------|
-----6-6-x-x-6--6-6-x-x-----------------------------------|
-----6-6-x-x-6--6-6-x-x----6-6-x-x-6--6-6-x-x-------------|
-----4-4-x-x-4--4-4-x-x----6-6-x-x-6--6-6-x-x-------------|
---------------------------4-4-x-x-4--4-4-x-x-------------|

-----------11-11-9-9-------------------------------------|
---------------------13-13-11-11-9~----------------------|
-8-8-8-8-------------------------------------------------|
-8-8-8-8-------------------------------------------------|
-6-6-6-6-------------------------------------------------|
---------------------------------------------------------|

DO THE SAME AS THE FIRST VERSE!


  BRIDGE:
e|--------------------------------------------------------------|
B|--------------------------------------------------------------|
G|-5--6--5--6-----8--5--5--5------------------------------------|
D|-5--6--5--6--6--8--5--5--5------------------------------------|
A|-3--4--3--4--6--6--3--3--3------------------------------------|
E|-------------4------------------------------------------------|

ONE,TWO,THREE,FOUR.....

SOLO:
[ Tab from: http://www.guitartabs.cc/tabs/m/mcfly/that_girl_tab_ver_5.html ]
e|--------------------------------------------------------------|
B|--------------------------------------------------4-6b7-------|
G|--6-6-6-6-4---6-4---6-4---6-4---6-4---6-4-6-4-6-6-4-6b7-6s8---|
D|------------6-----6-----6-----6-----6-----6-4-6-6-------6s8---|
A|--------------------------------------------------------------|
E|--------------------------------------------------------------|

----------------------------------------------------------------------|
-------------------------------------------12-14-14b16-16-16b14-12r---|
-11-11-11-11-11-11-11-11-11-11-11-11-11-13-------------------------13-|
-13-13-13-13-13-13-13-13-13-13-13-13-13-------------------------------|
----------------------------------------------------------------------|
----------------------------------------------------------------------|


--------------------------------------------------------------------------------|
-------12-------12-------12-------12-------12-----------------------------------|
-11h13----11h13----11h13----11h13----11h13------11-13-11------------------------|
---------------------------------------------------------13-13-13-9-11-11b13b11-|
--------------------------------------------------------------------------------|
--------------------------------------------------------------------------------|


-----------------------------------------------------------------------------|
----------------------------6b7b6--------------------------------------------|
-------13-------------------6b7b6-4------------------------------------------|
-11b13----13b11-9----11-9-----------6-6-6-4---------4------------------------|
------------------11------------------------6-5-4-2---2----------------------|
----------------------------------------------------------14/\/\/\/\/\/\--4--|
                                                               ^
                                                    FAST UP AND DOWN STRUMMING

e|-------------------------------------------------------------------|
B|-------------------------------------------------------------------|
G|-----------------------6-------------------------------------------|
D|-6---------------------6---------------------6---------------------|
A|-6---------------------4---------------------6---------------------|
E|-4-------------------------------------------4---------------------|

e|-----------11-11-9-9-----------------------------------------------|
B|---------------------13-13-11-11-9~--------------------------------|
G|-8-8-8-8-----------------------------------------------------------|
D|-8-8-8-8-------------------------------------------- --------------|
A|-6-6-6-6-----------------------------------------------------------|
E|-------------------------------------------------------------------|


e|-------------------------------------------------------------------|
B|-------------------------------------------------------------------|
G|-----------------------6-6-x-x-6--6-6-x-x--------------------------|
D|-6-6-x-x-6--6-6-x-x----6-6-x-x-6--6-6-x-x----6-6-x-x-6--6-6-x-x----|
A|-6-6-x-x-6--6-6-x-x----4-4-x-x-4--4-4-x-x----6-6-x-x-6--6-6-x-x----|
E|-4-4-x-x-4--4-4-x-x--------------------------4-4-x-x-4--4-4-x-x----|

e|-------------------------------------------------------------------|
B|-------------------------------------------------------------------|
G|-8-8-8-8-----------------------------------------------------------|
D|-8-8-8-8-------------------------------------------- --------------|
A|-6-6-6-6-----------------------------------------------------------|
E|-------------------------------------------------------------------|

CHORUS:

e|-----------------------------------------------------------------|
B|-----------------------------------------------------------------|
G|-----------------------6-6-x-x-6--6-6-x-x------------------------|
D|-6-6-x-x-6--6-6-x-x----6-6-x-x-6--6-6-x-x----6-6-x-x-6--6-6-x-x--|
A|-6-6-x-x-6--6-6-x-x----4-4-x-x-4--4-4-x-x----6-6-x-x-6--6-6-x-x--|
E|-4-4-x-x-4--4-4-x-x--------------------------4-4-x-x-4--4-4-x-x--|

e|-----------------------------------------------------------------|
B|-----------------------------------------------------------------|
G|-8-8-8-8---------------------------------------------------------|
D|-8-8-8-8-------------------------------------------- ------------|
A|-6-6-6-6---------------------------------------------------------|
E|-----------------------------------------------------------------|

e|---------------------------------------------------------------|
B|---------------------------------------------------------------|
G|-----------------------6-6-x-x-6--6-6-x-x----------------------|
D|-6-6-x-x-6--6-6-x-x----6-6-x-x-6--6-6-x-x----6-----------------|
A|-6-6-x-x-6--6-6-x-x----4-4-x-x-4--4-4-x-x----6---LET-RING------|
E|-4-4-x-x-4--4-4-x-x--------------------------4-----------------|

e|----------------------------------------------------------------|
B|----------------------------------------------------------------|
G|-8---------6---------8------------------------------------------|
D|-8-LET-RING6-LET-RING8-LET-RING----6----------------------------|
A|-6---------4---------6-------------6—FADE-OUT-------------------|
E|-----------------------------------4----------------------------|

AND THAT`S IT! HOPE U LIKE IT! LET ME KNOW WAT U THINK E-MAIL ME! I DON'T MIND!
 PLEASE PLEASE RATE THIS TAB! :)
Comments