Mcfly - That Girl Chords & Tabs

 

That Girl Chords & Tabs

Mcfly Chords & Tabs

Version: 4 Type: Tab 0 ratings
1 star 2 stars 3 stars 4 stars 5 stars
comments

That Girl Tab

-----------------------------------------------------------------------------
			     THAT GIRL - McFly
-----------------------------------------------------------------------------

Tabbed by: rob
Email: hmm102@hotmail.com
Comments: oh dear, im tabbing another mcfly song...i must have gone insane...anyway,
i tabbed this because someone asked me to - they couldnt find a decent tab for the
solo.  well here it is! :D  this tab is pretty accurate, etc etc - ps if you like/
hate the tab, email me.  i like getting emails from random people complimenting
the tab/mocking me cause i like mcfly/talking about turnips.
ENOUGH CRAP, HERE IS THE SOLO TAB FOR "THAT GIRL"


e|--------------------------------------------------------------|
B|--6-6-6-6p4---6p4---6p4---6p4---6p4-----------4-4-------------|
G|--6-6-6-6p4---6p4---6p4---6p4---6p4-----------4-4-------------|
D|--6-6-6-6p4-6-6p4-6-6p4-6-6p4-6-6p4-6-4---6-x-4-4-6----6/////-|
A|------------6-----6-----6-----6-----6-4---6-x-----6----6/////-|
E|--------------------------------------------------------------|

----------------------------------------------------------------------|
-------------------------------------------12-14-14b16-16-16b14-12----|
-11-11-11-11-11-11-11-11-11-11-11-11-11-13-------------------------13-|
-13-13-13-13-13-13-13-13-13-13-13-13-13-------------------------------|
----------------------------------------------------------------------|
----------------------------------------------------------------------|

[ Tab from: http://www.guitartabs.cc/tabs/m/mcfly/that_girl_tab_ver_4.html ]
----------------------------------------------------------------------------|
-------12-------12-------12-------12-------12-------------------------------|
-11h13----11h13----11h13----11h13----11h13------11-13-11--------------------|
---------------------------------------------------------13\\\9-11-11b13b11-|
----------------------------------------------------------------------------|
----------------------------------------------------------------------------|


-----------------------------------------------------------------------------|
----------------------------6b7b6--------------------------------------------|
-------13-------------------6b8b6-5-6----------------------------------------|
-11b13----13b11-9----11-9-------------6-4-----------4------------------------|
------------------11------------------------6-5-4-2---2----------------------|
----------------------------------------------------------14\\\\\\\\\\\\--4--|
                                                           |
                                     slide fingers down fretboard whilst
                                     strumming on string really quickly


hope you like it
oh and while im at it ill have a go at tabbing the intro, cause i havent really been 
with the ones ive seen:

***INTRO***
e|-----------11-11----------9-9---------4-----------7-6-4-----------|
B|--------11-11-11--------9-9-9-----4-6-4-6-4-4-6-4-------7-4-------|
G|--11-12------------9-10---------5(5)--5-6-5--(6-5)----------7-6-4-|
D|------------------------------------------------------------------|
A|------------------------------------------------------------------|
E|------------------------------------------------------------------|

simple as that - notes in brackets are probably not part of the real song but sound fine as well
well i hope these tabs are helpful, i'll get back to being lazy now:)
Comments