Mcfly - That Girl Chords & Tabs

 

That Girl Chords & Tabs

Mcfly Chords & Tabs

Version: 3 Type: Tab 0 ratings
1 star 2 stars 3 stars 4 stars 5 stars
comments

That Girl Tab

1|---------------------------------------|
2|-------11-11-11----------9-9-9---------|
3|-10-12--------------8-10---------------|
4|---------------------------------------|
5|---------------------------------------|
6|---------------------------------------|

1|-----------------------8-6-------------|
2|---4-6-4-----------4-------9-6---------|
3|-5-------6-5-----5---5---------8-5-----|
4|-----------------------------------8-6-|
5|---------------------------------------|
6|---------------------------------------|
[ Tab from: http://www.guitartabs.cc/tabs/m/mcfly/that_girl_tab_ver_3.html ]
Comments