Mcfly - That Girl Chords & Tabs

 

That Girl Chords & Tabs

Mcfly Chords & Tabs

Version: 2 Type: Tab 0 ratings
1 star 2 stars 3 stars 4 stars 5 stars
comments

That Girl Tab

   
-------------------------------------------------------------------------------
			     That girl - McFly
-------------------------------------------------------------------------------
Tabbed by: niall
Email:
     Hey im only 14 so im not  gr8 at guitar yet but I think this is pretty much rite
Tuning: standard

intro
e|---------11---------9-------4-----------7-6-4-------------------------------|
B|---11-13-11----9-11-9---4-6-4-----------------7-6-4-------------------------|
G|-12----------10--------5------6-4-4h6p4-------------6-4---------------------|
D|--------------------------------------------------------6-------------------|
A|----------------------------------------------------------------------------|
E|----------------------------------------------------------------------------|
   verse + chorus
e|----------------------------------------------------------------------------|
B|----------------------------------------------------------------------------|
G|-----------------------6-6-x-x-6--6-6-x-x-----------------------------------|
D|-6-6-x-x-6--6-6-x-x----6-6-x-x-6--6-6-x-x-x2-6-6-x-x-6--6-6-x-x-------------|
A|-6-6-x-x-6--6-6-x-x-x2-4-4-x-x-4--4-4-x-x----6-6-x-x-6--6-6-x-x-------------|
E|-4-4-x-x-4--4-4-x-x--------------------------4-4-x-x-4--4-4-x-x-------------|
[ Tab from: http://www.guitartabs.cc/tabs/m/mcfly/that_girl_tab_ver_2.html ]
e|-----------11-11-9-9-8-8-6-6-4---------------------------------------------|
B|---------------------------------------------------------------------------|
G|-8-8-8-8-------------------------------------------------------------------|
D|-8-8-8-8----------------------------whole-thing-twice----------------------|
A|-6-6-6-6-------------------------------------------------------------------|
E|---------------------------------------------------------------------------|
    verse 2
e|----------------------------------------------------------------------------|
B|----------------------------------------------------------------------------|
G|-------------------6-6-6-6-----------------------8-8-8-8--------------------|
D|-5/6-6-6---5/6-6-6-6-6-6-6-x2-6-6-6-6---6-6-6-6--8-8-8-8-x2-----------------|
A|-5/6-6-6---5/6-6-6-4-4-4-4----6-6-6-6---6-6-6-6--6-6-6-6--------------------|
E|-3/4-4-4---3/4-4-4------------4-4-4-4---4-4-4-4-----------------------------|
  bridge
e|---------------------------------------------------------------------------|
B|---------------------------------------------------------------------------|
G|-5------------6----------------------------8------------6-6-6-6-6-6--------|
D|-5-(let ring)-6-(let ring)-x2-3------------8-(let ring)-6-6-6-6-6-6--------|
A|-3------------4---------------3-(let ring)-6------------4-4-4-4-4-4--------|
E|------------------------------1--------------------------------------------|
    (she lookd incredible just turnd 17...................)
  solo
e|---------------------------------------------------------------------------|
B|-------------------------------6-6-4-4---4---4---4-------------------------|
G|--6-6-6-6p4-6p4-6p4-6p4-6p4----6-6-4-4---6b8-6b8-6b8-x5--16b18-------------|
D|-----------6---6---6---6---6-4---------6----------------------16-----------|
A|---------------------------------------------------------------------------|
E|---------------------------------------------------------------------------|

e|---------------------------------------------------------------------------|
B|---------------------------------------------------------------------------|
G|-------18------18------18-----18-----18------------------------------------|
D|--16h18---16h18---16h18--16h18--16h18--16h18p16----------------------------|
A|---------------------------------------------------------------------------|
E|---------------------------------------------------------------------------|
  Not sure on the last bit just play around wiv the scale in G#

Order of song
Intro
verse
chorus
verse 2
chorus
bridge
solo
verse
chorus
 I think thts bout it as soon as I find out the rest of  the solo I will tab it 4 ya!!!

| /  slide up
| \  slide down
| h  hammer-on
| p  pull-off
| ~  vibrato
| +  harmonic
| x  Mute note
===============================================================================
Comments