Mcfly - That Girl Chords & Tabs

 

That Girl Chords & Tabs

Mcfly Chords & Tabs

Version: 3 Type: Bass Tab

That Girl Bass Tab

McFly
That Girl (Bass)
Tuning: Standard
Transcribed by Soch H.

Intro:
|------------------------|
|------------------------|
|--6----4----------------|
|------------4------16\--|

Verse:
|-----------------------------------------------------------------------|
|-----------------------------------------------------------------------|
|------------------4444444444444444------------------6666666666-4433----|
|-4444444444444444------------------4444444444444444-----------------66-|

|---------------------------------------------------------------|
|---------------------------------------------------------------|
|------------------4444444444444444----------66666666-----------|
|-4444444444444444------------------44444444----------444444444-|

Chorus:
|------------------------------------------------------------------------|
|------------------------------------------------------------------------|
|------------------4444444444444444------------------6666666666666666----|
|-4444444444444444------------------4444444444444444---------------------|

|-----------------------------------------------------------------|
|-----------------------------------------------------------------|
|------------------4444444444444444----------66666666-44444444-6\-|
|-4444444444444444------------------44444444----------------------|

Verse 2:
|-----------------------------------------------------------------------|
|-----------------------------------------------------------------------|
|------------------4444444444444444------------------6666666666-4433----|
|-3s4-444-3s4-444-------------------4444444444444444-----------------66-|

|---------------------------------------------------------------|
|---------------------------------------------------------------|
|------------------4444444444444444----------66666666-----------|
|-4444444444444444------------------44444444----------444444444-|

Chorus:
|------------------------------------------------------------------------|
|------------------------------------------------------------------------|
|------------------4444444444444444------------------6666666666666666----|
|-4444444444444444------------------4444444444444444---------------------|
[ Tab from: http://www.guitartabs.cc/tabs/m/mcfly/that_girl_btab_ver_3.html ]
|-----------------------------------------------------------------|
|-----------------------------------------------------------------|
|------------------4444444444444444----------66666666-44444444-6\-|
|-4444444444444444------------------44444444----------------------|

Bridge:
|------------------------------------|
|-----3-5-----3-5----3-6-3----3-6-3--|
|-3-6-----3-6------4--------4--------|
|------------------------------------| (x2)

|--------------------------------------|
|---------------------5-8-5----5-8-5---|
|-----1-3-----1-3---6--------6---------|
|-1-4-----1-4--------------------------|

|--------------------------------|
|---3-6-3----3-6-3----8-6-3------|
|-4--------4--------4--------4---|
|--------------------------------|

Solo:
|-------------------------------------------------------------------|
|-------------------------------------------------------------------|
|------------------44444444444444-66------------33445566666666------|
|-4444444444444444-------------------4444444444-----------------16\-|

|---------------------------------------------------------------|
|---------------------------------------------------------------|
|------------------4444444444444444----------66666666-----------|
|-4444444444444444------------------44444444----------444444444-|

2nd Bridge:
|---------------------------------------------------|
|---------------------------------------------------|
|-----------4------4---------666666666666-4433------|
|--4------4----------4-----4-------------------66---|

Verse 3:
|-----------------------------------------------------------------|
|--------------------------------------------------------------6--|
|------------------4444444444444444----------66666666---------6---|
|-4444444444444444------------------44444444----------4444444-----|

Chorus:
|--------------------------------------------------------------------|
|--------------------------------------------------------------------|
|------------------4444444444444444-------------33446666666666666666-|
|-4444444444444444-----------------444444444444----------------------|

Outro: (2:52)
|--------------------------------------------------------------------------|
|----------66666666--------------------------------------------------------|
|---------6---------4444444444444444---------6-------4-------6-------------|
|-4444444----------------------------4---------------------------------4---|