Mcfly - That Girl Chords & Tabs

 

That Girl Chords & Tabs

Mcfly Chords & Tabs

Version: 2 Type: Bass Tab 0 ratings
1 star 2 stars 3 stars 4 stars 5 stars
comments

That Girl Bass Tab

Artist - Mcfly
Song - That Girl
Album - Room On The Third Floor
Tuning - Standard
Tabber - Leon Jenkins

Intro
G|-----------------------------|
D|-----------------------------|
A|-----6-----4-----------------|
E|-----------------4-----------|

Verse
G|----------------------------------------------------------|
D|----------------------------------------------------------|
A|----------------44-4-444-44-------------666666666---------|
E|----44-4-444-44-------------44-4-444-44-------------------|

this next part doesnt have to be played, its not on the album
track, but he may do it when they play live gigs. Plus it makes
the bass part a bit better.

G|----------------------------|
D|----------------------------|
A|---6(6)-4(4)-3(3)-----------|
E|-----------------6(6)-4-----|

G|----------------------------------------------------------|
D|----------------------------------------------------------|
A|----------------44-4-444-44---------666666666---(4)-------|
E|----44-4-444-44-------------44444444----------444--4------|

Chorus
G|----------------------------------------------------------|
D|----------------------------------------------------------|
A|----------------44-4-444-44-------------666666666--66-----|
E|----44-4-444-44-------------44-4-444-44-------------------|

G|----------------------------------------------------------|
D|----------------------------------------------------------|
A|----------------44-4-444-44---------666666666--4444444-6~-|
E|----44-4-444-44-------------44444444----------------------|

Verse
G|----------------------------------------------------------|
D|----------------------------------------------------------|
A|--------------44-4-444-44-------------666666666-----------|
E|-3h4-4-3h4-4--------------44-4-444-44---------------------|

G|----------------------------|
D|----------------------------|
A|---6(6)-4(4)-3(3)-----------|
E|-----------------6(6)-4-----|

G|----------------------------------------------------------|
D|----------------------------------------------------------|
A|----------------44-4-444-44---------666666666---(4)-------|
E|----44-4-444-44-------------44444444----------444---4-----|

Chorus
G|----------------------------------------------------------|
D|----------------------------------------------------------|
A|----------------44-4-444-44-------------666666666--66-----|
E|----44-4-444-44-------------44-4-444-44-------------------|
[ Tab from: http://www.guitartabs.cc/tabs/m/mcfly/that_girl_btab_ver_2.html ]
G|----------------------------------------------------------|
D|----------------------------------------------------------|
A|----------------44-4-444-44---------666666666--4444444-6~-|
E|----44-4-444-44-------------44444444----------------------|

Bridge
This is where the bass playes a big part in the song.
G|--------------------------------------------|
D|------3-5------3-5----6-3----6-3------------|
A|--3-6-----3-6-----4-7----4-7----------------|
E|--------------------------------------------|

G|--------------------------------------------|
D|------3-5------3-5----6-3----6-3------------|
A|--3-6-----3-6-----4-7----4-7----------------|
E|--------------------------------------------|

G|--------------------------------------------|
D|-----------------------8-5-----8-5----------|
A|------4-6-----4-6--6-9-----6-9--------------|
E|--4-7-----4-7-------------------------------|

G|--------------------------------------------|
D|------6-3-----6-3---------------------------|
A|--4-7-----4-7------4~----s16-16-16-16-16----|
E|--------------------------------------------|

During Guitar Solo
G|----------------------------------------------------------|
D|----------------------------------------------------------|
A|----------------44-4-444-44-------------666666666---------|
E|----44-4-444-44-------------44-4-444-44-------------------|

G|----------------------------------------------------------|
D|----------------------------------------------------------|
A|----------------44-4-444-44---------666666666---(4)-------|
E|----44-4-444-44-------------44444444----------444---4~----|

After Solo
G|---------------------------|----------|
D|---------------------------|----------|
A|-------4~-4------666666666-|-4-3------|
E|--4~-4------4~-4-----------|----6-4---|

G|----------------------------------------------------------|
D|----------------------------------------------------------|
A|----------------44-4-444-44---------666666666---(4)-------|
E|----44-4-444-44-------------44444444----------444--4------|

Chorus
G|----------------------------------------------------------|
D|----------------------------------------------------------|
A|----------------44-4-444-44-------------666666666--66-----|
E|----44-4-444-44-------------44-4-444-44-------------------|

G|----------------------------------------------------------|
D|----------------------------------------------------------|
A|-------------44444444-----6~--4~--6~----------------------|
E|----44444444----------4~--------------4~~~~---------------|

and thats it, hope you liked it, let me know what you think
by emailing me at ljenkins040@aol.com
Comments