Mcfly - She Left Me Chords & Tabs

 

She Left Me Chords & Tabs

Mcfly Chords & Tabs

Version: 4 Type: Tab 0 ratings
1 star 2 stars 3 stars 4 stars 5 stars
comments

She Left Me Tab

Title: She Left Me
Artist: McFly
Tabbed By: Lewis Mitchell
Tuning: Eadgbe (standard)


Intro/Verse

e|-------3-----------2-----------3-----------2h3-----|
B|-----2---2-------3---3-------1---1-------3-----3---|
G|---0-------0---4-------4---0-------0---2---------2-|
D|-------------------------------------0-------------|
A|-------------2-----------3-------------------------|
E|-3-------------------------------------------------|
   


e|-------3-----------2-----------3------------------|
B|-----0---0-------3---3-------1---1-------1-3-1----|
G|---0-------0---4-------4---0-------0---0-------0--|
D|--------------------------------------------------|
A|-------------2-----------3-----------3------------|
E|-3------------------------------------------------|





Solo
e|---------------------------------------------------------------|
B|----8-10^(12)--10^(12)--10p8----8--10(11)^(10)--8----8--10-----|
G|--9--------------------------h9-------------------h8-----------|
D|---------------------------------------------------------------|
A|---------------------------------------------------------------|
E|---------------------------------------------------------------|

e|----------15--14--12--14p12------------------------------------|
B|----8--8---------------------15--15--12--15--------------------|
G|--9------------------------------------------12------12--------|
D|-------------------------------------------------14------------|
A|---------------------------------------------------------------|
E|---------------------------------------------------------------|
[ Tab from: http://www.guitartabs.cc/tabs/m/mcfly/she_left_me_tab_ver_4.html ]
e|---------------------------------------------------------------|
B|---------------------------------------------------------------|
G|----14(16)(14)---------12h14--^(16)(14)--12------12------------|
D|----------------12h14------------------------14----------------|
A|---------------------------------------------------------------|
E|---------------------------------------------------------------|

e|-----------------------------12--------------------------------|
B|---------------------12--12------15p12--12---------------------|
G|--12h14------12--14-------------------------14p12------12h14---|
D|---------14----------------------------------------14----------|
A|---------------------------------------------------------------|
E|---------------------------------------------------------------|

e|---------------------------------------------------------------|
B|--12-----------------------------------------------------------|
G|------12---------7--9-7-7--9-7-7--9-7-7--9-7-7--9-7-7--9-7-7---|
D|----------14--9------------------------------------------------|
A|---------------------------------------------------------------|
E|---------------------------------------------------------------|

e|---------------------------------------------------------------|
B|----------------12--15--15--15--12--15--15^(17)(15)******------|
G|--9-7-7--9-7-7-------------------------------------------------|
D|---------------------------------------------------------------|
A|---------------------------------------------------------------|
E|---------------------------------------------------------------|
Comments