Mcfly - She Left Me Chords & Tabs

 

She Left Me Chords & Tabs

Mcfly Chords & Tabs

Version: 2 Type: Tab 0 ratings
1 star 2 stars 3 stars 4 stars 5 stars
comments

She Left Me Tab

   
Hey, the other tabs of this are wrong, so i thought id post the correct one
on here.The intro also stands for the verses. The chorus is based on this,
but its a variation of it (im not entirely sure what it is, but anyone with
the tab can email me it on tashp24@hotmail.com) Please rate this tab.
[ Tab from: http://www.guitartabs.cc/tabs/m/mcfly/she_left_me_tab_ver_2.html ]
e|-------3-----------2-----------3-----------2h3-----|
B|-----0---0-------3---3-------1---1-------3-----3---|
G|---0-------0---4-------4---0-------0---2---------2-|
D|-------------------------------------0-------------|
A|-------------2-----------3-------------------------|
E|-3-------------------------------------------------|
   G          Bm           C           D


e|-------3-----------2-----------3------------------|
B|-----0---0-------3---3-------1---1-------1-3-1----|
G|---0-------0---4-------4---0-------0---0-------0--|
D|--------------------------------------------------|
A|-------------2-----------3-----------3------------|
E|-3------------------------------------------------|
Comments