Mcfly - Pinball Wizard Chords & Tabs

 

Pinball Wizard Chords & Tabs

Mcfly Chords & Tabs

Version: 2 Type: Tab 0 ratings
1 star 2 stars 3 stars 4 stars 5 stars
comments

Pinball Wizard Tab

   
-------------------------------------------------------------------------------
			     MCFLY Pinball Wizard
-------------------------------------------------------------------------------
Tabbed by:jo_prior
Hi  I love the real version of pinball wizard that the who did but I'm the biggest
Mcfly fan there is and when I heard there version I fell in love with it! So I
thought I'd give it a try. Plz plz plz rate it! Its my first tab so don't b too mean ;)


Tuning:normal

Verse +intro

(listen to the song for strumming patterns)
e|-2--0--2--2--2--0--2--2-----7--7-(repeat these 2 chords)-5--5--3--3--2-----|
B|-3--3--2--2--2--0--2--2-----7--7(how ever many times  )-5--5--3--3--2-----|
G|-4--4--4--3--2--0--4--3-----9--8(they are played      )-7--6--5--4--3-----|
D|-4--4--2--2--2--2--2--2-----9--9(in the song          )-7--7--5--5--4-----|
A|-x--x--4--4--4--2--4--4-----7--9-------------------------5--7--3--5--4-----|
E|-x--x--2--2--2--0--2--2-----7--7-------------------------5--5--3--3--2-----|


(25secs in lead plays this)
e|--5/7-----5/7----5/7-(singing and bass come in)3/5----2/3----1/2----------|
B|---------------------------------------------------------------------------|
G|---------------------------------------------------------------------------|
D|---------------------------------------------------------------------------|
A|---------------------------------------------------------------------------|
E|---------------------------------------------------------------------------|
"sure plays mean pinball"   B  A  D  E  (REPEAT)
e|--------------------------7--5--5--0---------------------------------------|
B|--------------------------7--5--7--0---------------------------------------|
G|--------------------------8--6--7--1---------------------------------------|
D|--------------------------9--7--7--2---------------------------------------|
A|--------------------------9--7--5--2---------------------------------------|
E|--------------------------7--5--5--0---------------------------------------|


PLAY VERSE AGAIN
AND THE "SURE PLAYS MEAN PINBALL BIT"
"hes a pinball wizard"

e|-0--2--2----------------------3-2-3-2----------------------------------------|
B|-0--2--4----------------------3-3-3-3----------------------------------------|
G|-1--3--4----------------------2-2-2-2----------------------------------------|
D|-2--4--4----------------------0-0-0-0----------------------------------------|
A|-2---------------------------------------------------------------------------|
E|-0------play 3 times then play-----------------------------------------------|

[ Tab from: http://www.guitartabs.cc/tabs/m/mcfly/pinball_wizard_tab_ver_2.html ]
"how do you think he does it"
Play these 3 chords 2 times
e|-2--3--3---------------------------------------------------------------------|
B|-3--3--3---------------------------------------------------------------------|
G|-2--0--0---------------------------------------------------------------------|
D|-0--2--0---------------------------------------------------------------------|
A|-x--3--2---------------------------------------------------------------------|
E|-x--0--3---------------------------------------------------------------------|
Lead plays this
e|-----------------------------------------------------------------------------|
B|-----------------------------------------------------------------------------|
G|-7-5-4-0-7-5-4-0-7-5-4-0-7---------------------------------------------------|
D|-----------------------------------------------------------------------------|
A|-----------------------------------------------------------------------------|
E|-----------------------------------------------------------------------------|
PLAY VERSE AGAIN
AND THE "SURE PLAYS MEAN PINBALL" BIT

e|-0--2--2----------------------3-2-3-2-----------------------------------------|
B|-0--2--4----------------------3-3-3-3-----------------------------------------|
G|-1--3--4----------------------2-2-2-2-----------------------------------------|
D|-2--4--4----------------------0-0-0-0-----------------------------------------|
A|-2-----------------------------------------------------------------------------|
E|-0------play 3 times then play-------------------------------------------------|

e|-3--3--10--10--8---8--6--6--5--------------------------------------------------|
B|-3--2--10--10--8---8--6--6--5--------------------------------------------------|
G|-2--3--12--11--10--9--8--7--6--------------------------------------------------|
D|-0--0--12--12--10--10-8--8--7--------------------------------------------------|
A|-------10--12--8---10-6--8--7--------------------------------------------------|
E|-------10--10--8---8--6--6--5--------------------------------------------------|
Lead plays this at 2:17
e|-------------------8/10---8/10---8/10--6/8--5/6--3/5------------------------|
B|-------------------------------------------------------------------------------|
G|-------------------------------------------------------------------------------|
D|-------------------------------------------------------------------------------|
A|-------------------------------------------------------------------------------|
E|-------------------------------------------------------------------------------|
"SURE PLAYS MEAN PINBALL"          not sure of the very end bit     
e|----------------------2--0--1--6-----------------------------------------------|
B|----------------------3--1--1--6-----------------------------------------------|
G|----------------------2--0--2--7-----------------------------------------------|
D|----------------------0--2--3--8-----------------------------------------------|
A|-------------------------3--3--8-----------------------------------------------|
E|----------------------------1--6-----------------------------------------------|

There you go!

| \  slide down
| h  hammer-on
| p  pull-off
| ~  vibrato
| +  harmonic
| x  Mute note
===============================================================================
Comments