Mcfly - Pinball Wizard Chords & Tabs

 

Pinball Wizard Chords & Tabs

Mcfly Chords & Tabs

Version: 1 Type: Tab 0 ratings
1 star 2 stars 3 stars 4 stars 5 stars
comments

Pinball Wizard Tab

Artist - McFly
Track - Pinball Wizard
Tabbed by - Reece Chown

Revised this tab slightly so new ratins would be appreciated. Please do not mark this 
down because it is McFly's cover of the who's classic track. Rate how good the tab is 
with the real track.
Feel free to contact me at reece_chown@hotmail.com =]


**Tab By Reece Chown**

Intro:

e|--2-----------------0-----------------0-----------------0---------------|
B|--3-----------------3-----------------2-----------------2---------------|
G|--4-----------------4-----------------4-----------------3---------------|
D|--4-4-4-4-4-4-4-4---4-4-4-4-4-4-4-4---4-4-4-4-4-4-4-4---4-4-4-4-4-4-4-4-|
A|------------------------------------------------------------------------|
E|------------------------------------------------------------------------|

e|------------------------------------------------------------------------|
B|--2-----------------0-----------------0-----------------2---------------|
G|--2-----------------0-----------------4-----------------3---------------|
D|--4-4-4-4-4-4-4-4---4-4-4-4-4-4-4-4---5-5-5-5-5-5-5-5---4-4-4-4-4-4-4-4-|
A|------------------------------------------------------------------------|
E|------------------------------------------------------------------------|

e|-------------------|
B|-------------------|
G|-------------------|
D|--4-4-4-4-4-4-4-4--|
A|-------------------|
E|-------------------|


**For this part the rhythm is very hard to master, i think there is a 12 strum rhythm 
this part so listen to get perfect**

acoustic guitar plays
e|-------------------|-------------------|
B|--7-7-7-7-7-7-7-7--|--7-7-7-7-7-7-7-7--|
G|--9-9-9-9-9-9-9-9--|--8-8-8-8-8-8-8-8--|
D|--9-9-9-9-9-9-9-9--|--9-9-9-9-9-9-9-9--|
A|-------------------|-------------------|
E|-------------------|-------------------| x4

on 3rd and 4th time electric guitar plays
e|-------|
B|-------|
G|-------|
D|-------|
A|-------|
E|--5s7--|
at beginnin of first bar.

Verse:

e|-------------------|-------------------|
B|--7-7-7-7-7-7-7-7--|--7-7-7-7-7-7-7-7--|
G|--9-9-9-9-9-9-9-9--|--8-8-8-8-8-8-8-8--|
D|--9-9-9-9-9-9-9-9--|--9-9-9-9-9-9-9-9--|
A|-------------------|-------------------|
E|-------------------|-------------------|
 |                                            | this join means played at
 |electric guitar plays                       | same time
e|-------------------|-------------------|
B|-------------------|-------------------|
G|-------------------|-------------------|
D|-------------------|-------------------|
A|-------------------|-------------------|
E|--5s7--------------|-------------------|    *-listen for exact timing-*


e|-------------------|-------------------|
B|--5-5-5-5-5-5-5-5--|--5-5-5-5-5-5-5-5--|
G|--7-7-7-7-7-7-7-7--|--6-6-6-6-6-6-6-6--|
D|--7-7-7-7-7-7-7-7--|--7-7-7-7-7-7-7-7--|
A|-------------------|-------------------|
E|-------------------|-------------------|
 |
 |
e|-------------------|-------------------|
B|-------------------|-------------------|
G|-------------------|-------------------|
D|-------------------|-------------------|
A|-------------------|-------------------|
E|--3s5--------------|-------------------|


e|-------------------|-------------------|
B|--3-3-3-3-3-3-3-3--|--3-3-3-3-3-3-3-3--|
G|--5-5-5-5-5-5-5-5--|--4-4-4-4-4-4-4-4--|
D|--5-5-5-5-5-5-5-5--|--5-5-5-5-5-5-5-5--|
A|-------------------|-------------------|
E|-------------------|-------------------|
 |
 |
e|-------------------|-------------------|
B|-------------------|-------------------|
G|-------------------|-------------------|
D|-------------------|-------------------|
A|-------------------|-------------------|
E|--1s3--------------|-------------------|


e|-------------------|-------------------|
B|--2-2-2-2-2-2-2-2--|--2----------------|
G|--4-4-4-4-4-4-4-4--|--3----------------|
D|--4-4-4-4-4-4-4-4--|--4----------------|
A|-------------------|-------------------|
E|-------------------|-------------------|
 |
 |
e|-------------------|-------------------|
B|-------------------|-------------------|
G|-------------------|-------------------|
D|-------------------|-------------------|
A|-------------------|-------------------|
E|--0s2--------------|-------------------|

Chorus:

e|--------------------|-------------------|
B|--------------------|-------------------|
G|------------7---9-9-|--9---9-9-9-9-9----|
D|--9-9---7---7---9-9-|--9---9-9-9-9-9----|
A|--9-9---7---5---7-7-|--7---7-7-7-7-7----|
E|--7-7---5-----------|-------------------|x2 *-listen for timing-*

Verse:

e|-------------------|-------------------|
B|--7-7-7-7-7-7-7-7--|--7-7-7-7-7-7-7-7--|
G|--9-9-9-9-9-9-9-9--|--8-8-8-8-8-8-8-8--|
D|--9-9-9-9-9-9-9-9--|--9-9-9-9-9-9-9-9--|
A|-------------------|-------------------|
E|-------------------|-------------------|

e|-------------------|-------------------|
B|--5-5-5-5-5-5-5-5--|--5-5-5-5-5-5-5-5--|
G|--7-7-7-7-7-7-7-7--|--6-6-6-6-6-6-6-6--|
D|--7-7-7-7-7-7-7-7--|--7-7-7-7-7-7-7-7--|
A|-------------------|-------------------|
E|-------------------|-------------------|

e|-------------------|-------------------|
B|--3-3-3-3-3-3-3-3--|--3-3-3-3-3-3-3-3--|
G|--5-5-5-5-5-5-5-5--|--4-4-4-4-4-4-4-4--|
D|--5-5-5-5-5-5-5-5--|--5-5-5-5-5-5-5-5--|
A|-------------------|-------------------|
E|-------------------|-------------------|

e|-------------------|-------------------|
B|--2-2-2-2-2-2-2-2--|--2----------------|
G|--4-4-4-4-4-4-4-4--|--3----------------|
D|--4-4-4-4-4-4-4-4--|--4----------------|
A|-------------------|-------------------|
E|-------------------|-------------------|

Chorus:
[ Tab from: http://www.guitartabs.cc/tabs/m/mcfly/pinball_wizard_tab.html ]
e|--------------------|-------------------|
B|--------------------|-------------------|
G|------------7---9-9-|--9---9-9-9-9-9----|
D|--9-9---7---7---9-9-|--9---9-9-9-9-9----|
A|--9-9---7---5---7-7-|--7---7-7-7-7-7----|
E|--7-7---5-----------|-------------------|x2

Middle 8 kinda part:

e|-----------|-----------|-----------|--3-3-3-3-2-2--|-2h3-2h3-2-2-|
B|-----------|-----------|-----------|--3-3-3-3-3-3--|-3---3---3-3-|
G|--1-----4--|-1-----4-4-|--1-----4--|--0-0-0-0-2-2--|-2---2---2-2-|
D|--2--4--4--|-2--4--4-4-|--2--4--4--|--0-0-0-0-0-0--|-0---0---0-0-|
A|--2--4--2--|-2--4--2-2-|--2--4--2--|---------------|-------------|
E|--0--2-----|-0--2------|--0--2-----|---------------|-------------|


e|--2-2---0---3----|      |--2-2---2-2-2-2----|
B|--3-3---1---3----|      |--3-3---3-3-3-3----|
G|--2-2---0---0----|      |--2-2---2-2-2-2----|
D|--0-0---2---0----|      |--0-0---0-0-0-0----|
A|--------3---2----|      |-------------------|
E|--------3---3----|x3    |-------------------|

Verse:

e|-------------------|-------------------|
B|--7-7-7-7-7-7-7-7--|--7-7-7-7-7-7-7-7--|
G|--9-9-9-9-9-9-9-9--|--8-8-8-8-8-8-8-8--|
D|--9-9-9-9-9-9-9-9--|--9-9-9-9-9-9-9-9--|
A|-------------------|-------------------|
E|-------------------|-------------------|


e|-------------------|-------------------|
B|--5-5-5-5-5-5-5-5--|--5-5-5-5-5-5-5-5--|
G|--7-7-7-7-7-7-7-7--|--6-6-6-6-6-6-6-6--|
D|--7-7-7-7-7-7-7-7--|--7-7-7-7-7-7-7-7--|
A|-------------------|-------------------|
E|-------------------|-------------------|


e|-------------------|-------------------|
B|--3-3-3-3-3-3-3-3--|--3-3-3-3-3-3-3-3--|
G|--5-5-5-5-5-5-5-5--|--4-4-4-4-4-4-4-4--|
D|--5-5-5-5-5-5-5-5--|--5-5-5-5-5-5-5-5--|
A|-------------------|-------------------|
E|-------------------|-------------------|


e|-------------------|-------------------|
B|--2-2-2-2-2-2-2-2--|--2----------------|
G|--4-4-4-4-4-4-4-4--|--3----------------|
D|--4-4-4-4-4-4-4-4--|--4----------------|
A|-------------------|-------------------|
E|-------------------|-------------------|

Chorus:

e|--------------------|-------------------|
B|--------------------|-------------------|
G|------------7---9-9-|--9---9-9-9-9-9----|
D|--9-9---7---7---9-9-|--9---9-9-9-9-9----|
A|--9-9---7---5---7-7-|--7---7-7-7-7-7----|
E|--7-7---5-----------|-------------------|x2
                                              *-listen for timing-*


Middle 8 kinda part:

e|-----------|-----------|-----------|--3-3-3-3-2-2--|-2h3-2h3-2-2-|
B|-----------|-----------|-----------|--3-3-3-3-3-3--|-3---3---3-3-|
G|--1-----4--|-1-----4-4-|--1-----4--|--0-0-0-0-2-2--|-2---2---2-2-|
D|--2--4--4--|-2--4--4-4-|--2--4--4--|--0-0-0-0-0-0--|-0---0---0-0-|
A|--2--4--2--|-2--4--2-2-|--2--4--2--|---------------|-------------|
E|--0--2-----|-0--2------|--0--2-----|---------------|-------------|


acoustic guitar plays
e|--x--x--x--x--x--x--x--x---|--x--x--x--x--x--x--x--x---|
B|--10-10-10-10-10-10-10-10--|--10-10-10-10-10-10-10-10--|
G|--12-12-12-12-12-12-12-12--|--11-11-11-11-11-11-11-11--|
D|--12-12-12-12-12-12-12-12--|--12-12-12-12-12-12-12-12--|
A|--x--x--x--x--x--x--x--x---|--x--x--x--x--x--x--x--x---|
E|--x--x--x--x--x--x--x--x---|--x--x--x--x--x--x--x--x---| x4

on 3rd and 4th time electric guitar plays
e|--------|
B|--------|
G|--------|
D|--------|
A|--------|
E|--8s10--|
at beginnin of first bar.


Fianl Verse:

e|---------------------------|---------------------------|
B|--10-10-10-10-10-10-10-10--|--10-10-10-10-10-10-10-10--|
G|--12-12-12-12-12-12-12-12--|--11-11-11-11-11-11-11-11--|
D|--12-12-12-12-12-12-12-12--|--12-12-12-12-12-12-12-12--|
A|---------------------------|---------------------------|
E|---------------------------|---------------------------|
 |
 |elestric guitar plays
e|---------------------------|---------------------------|
B|---------------------------|---------------------------|
G|---------------------------|---------------------------|
D|---------------------------|---------------------------|
A|---------------------------|---------------------------|
E|--8s10---------------------|---------------------------|


e|---------------------------|---------------------------|
B|--8--8--8--8--8--8--8--8---|--8--8--8--8--8--8--8--8---|
G|--10-10-10-10-10-10-10-10--|--9--9--9--9--9--9--9--9---|
D|--10-10-10-10-10-10-10-10--|--10-10-10-10-10-10-10-10--|
A|---------------------------|---------------------------|
E|---------------------------|---------------------------|
 |
 |
e|---------------------------|---------------------------|
B|---------------------------|---------------------------|
G|---------------------------|---------------------------|
D|---------------------------|---------------------------|
A|---------------------------|---------------------------|
E|--6s8----------------------|---------------------------|


e|-------------------|-------------------|
B|--6-6-6-6-6-6-6-6--|--6-6-6-6-6-6-6-6--|
G|--8-8-8-8-8-8-8-8--|--7-7-7-7-7-7-7-7--|
D|--8-8-8-8-8-8-8-8--|--8-8-8-8-8-8-8-8--|
A|-------------------|-------------------|
E|-------------------|-------------------|
 |
 |
e|-------------------|-------------------|
B|-------------------|-------------------|
G|-------------------|-------------------|
D|-------------------|-------------------|
A|-------------------|-------------------|
E|--4s6--------------|-------------------|


e|-------------------|-------------------|
B|--5-5-5-5-5-5-5-5--|--5----------------|
G|--7-7-7-7-7-7-7-7--|--6----------------|
D|--7-7-7-7-7-7-7-7--|--7----------------|
A|-------------------|-------------------|
E|-------------------|-------------------|
 |
 |
e|-------------------|-------------------|
B|-------------------|-------------------|
G|-------------------|-------------------|
D|-------------------|-------------------|
A|-------------------|-------------------|
E|--3s5--------------|-------------------|

Ending:

e|---------------------|
B|---------------------|
G|--7-7---5------------|
D|--7-7---5---3---8-8--|
A|--5-5---3---3---8-8--|
E|------------1---6-6--|
Comments