Mcfly - Not Alone Chords & Tabs

 

Not Alone Chords & Tabs

Mcfly Chords & Tabs

Version: 2 Type: Bass Tab 0 ratings
1 star 2 stars 3 stars 4 stars 5 stars
comments

Not Alone Bass Tab

i saw the other bass tabs. went through it, i think its wrong, so i did my own. you'll
have to work out the timing tho

-------------------------------------------------------------------------------
			     SONG NAME - Band Name
-------------------------------------------------------------------------------

Tabbed By : Louise
e-mail:  louicookie@hotmail.com   email me for more songs :)

This bit is played during the intro solo. its played quite slow

(high note)G: ---6----4----232------4----6----7894----12---2-|
           D: --------------------2--------------------------|
           A: -----------------------------------------------|
(low note) E: -----------------------------------------------|

     Life is getting harder day by day
 G:-----------------------------1--2-----4-|
 D:--2-----------------2-------------------|
 A:----------------------------------------|
 E:----------------------------------------|

     and I, I dont know what to do what to say, yeah
 G:----------------------------------1--2--------4-|
 D:------2----------2------------------------------|
 A:------------------------------------------------|
 E:------------------------------------------------|
[ Tab from: http://www.guitartabs.cc/tabs/m/mcfly/not_alone_btab_ver_2.html ]
    and my mind   is growing weak   every step I take
 G:----------6-------6-----------4--------4-------2--------2---4-|
 D:--------------6--------------------4--------------2-----------|
 A:--------------------------------------------------------------|
 E:--------------------------------------------------------------|

    its uncontrolable              now they think im fake
 G:----------6-------6-----------4--------4-------2-----------2-|
 D:--------------6--------------------4--------------2------2---|
 A:-------------------------------------------------------------|
 E:-------------------------------------------------------------|

   'Cause im not alone........no............no no
 G:----------------2--2--222--4--4--444----7--7--777--7--7--777--| x2
 D:--------------------------------------------------------------|
 A:--------------------------------------------------------------|
 E:--------------------------------------------------------------|

   'Cause I'm not alone
 G:---------------------------------------------------|
 D:--------------------2---2---2-2--------------------|
 A:--------------------------------2------------------|
 E:----------------------------------0----------------|

The second verse is the same as the first from what I can work out, apart from the
beginning, but I cant quite seem to get the notes, maybe you can :)

  People rip me for the clothes I wear
 G:-2-2-2-2-2-2-2-2-2---4-4-4-4-4-4-4-4-8-8-8-8-8-8-8-8--|
 D:------------------------------------------------------|
 A:------------------------------------------------------|
 E:------------------------------------------------------|

Repeat chorus again and thats the song finished
Comments