Mcfly - Ive Got You Chords & Tabs

 

Ive Got You Chords & Tabs

Mcfly Chords & Tabs

Version: 1 Type: Bass Tab

Ive Got You Bass Tab

McFly
I've Got You (Bass)
Tuning: Standard
Transcribed by Soch H.

Intro: (0:03)
|----------------------------------------------------|
|---2--------------------/14-14-16--14-13------------|
|-2---------------------------------------14--16-16\-|
|-------------0--------------------------------------|

Main: (0:12)
|-------------------------------------------|
|-------------------------------------------|
|-7--------------------7-7-9--7-6-----------|
|----7-7---4--4-5-5---------------7-9-9\----|

|------------------------------------------------|
|----9-9---6--6-7-7------------------------------|
|-7-------------------7--9-9------9-7-6----------|
|------------------------------7--------9------5-|

Verse: (0:28)
|----------------------------------------------------|
|----------------------------------------------------|
|----------7--------------2---2h=4-4--2-2h=4-4-------|
|-5-----------------5----------------------------5---|

|---------------------------------------------------------|
|---------------------------------------------------------|
|--2---2h=4-4---2h=4-4----------------22222222222222------|
|-------------------------5------2--------------------x\--|

Chorus: (0:52)
|----------------------|
|----------------------|
|-7--------------------|
|-----7-7---4--4-5-5---| (x4)

Verse: (1:05)
|------------------------------------------------------|
|------------------------------------------------------|
|----------7--------------2---2h=4-4----2h=4-4---------|
|-5-----------------5------------------------------5---|

|----------------6----------------------------------------------|
|-------------------6-----6-------------------------------------|
|--2---2h=4-4-----------4-----6--4-------------2222222222222----|
|----------------------------------5------2------------------x\-|

Chorus: (1:30)
|----------------------|
|----------------------|
|-7--------------------|
|-----7-7---4--4-5-5---| (x4)

|----------------------------------------------------|
|----------------------------------------------------|
|-7----------------------7-7--9-7-6------------------|
|-----7-7---4--4-5-5----------------7--9-9\----------|
[ Tab from: http://www.guitartabs.cc/tabs/m/mcfly/ive_got_you_btab.html ]
|------------------------------------------------|
|----9-9---6--6-7-7------------------------------|
|-7-------------------7--9-9------9-7-6----------|
|------------------------------7--------9--------|

Bridge: (1:55)
|------------------------------------------------------------|
|------------------------------------------------------------|
|----------------------/11---------14--------12--------------|
|-7----7s14-----12----------12\------------------------3s17\-|

(2:04)
|----------------------------------------|
|----------------------------------------|
|----------------------------------------|
|-3--3-3-3--0--0-0-0--5--5-5-5-0-2--2-2--|

|---------------------------------------------|
|---------------------------------------------|
|-----------------------555555555555-5-4------|
|-0-3--3-3-3-0-5--5-5-5------------------7-5--|

|--------------------------------------------|
|--------------------------------------------|
|--------------------------------------------|
|-3--3-3-3--0--0-0-0--5--5-5-5-0--2-2--2--2--|

|----------------------------------------------------|
|--------------------------------------------2-------|
|---------------------2222222222222222---------------|
|-3--3-3-3--5--5-5-5---------------------------------|

(2:32)
|---------------------------------------------------------|
|----2-------------2----------/14-14--16-14-13------------|
|--2-------------------------------------------14--16-16\-|
|---------------------------------------------------------|

Chorus: (2:41)
|----------------------|
|----------------------|
|-7--------------------|
|-----7-7---4--4-5-5---| (x2)

|----------------------|
|-----9-9---6--6-7-7---|
|-7-7------------------|
|----------------------|

(2:51)
|------------------------|
|------------------------|
|-7---7h=9--7--6---------|
|---7------------7-9-9\--|

Chorus: (2:54)
|-------------------------------------------|
|-------------------------------------------|
|-7---------------------7-7--9--7-6---------|
|-----7-7---4--4-5-5----------------7-9-9\--|

|-------------------------------------------|
|----9-9---6--6-7-7-------------------------|
|-7-------------------7--9-9-----9-7-6------|
|-----------------------------7--------9----|

Outro: (3:06)
|-------------------------|
|-------------------------|
|-7-----------------------|
|------7-----4----5-------|

Enjoy!