Mcfly - I'll Be Ok Chords & Tabs

 

I'll Be Ok Chords & Tabs

Mcfly Chords & Tabs

Version: 2 Type: Bass Tab

I'll Be Ok Bass Tab

   
i tried logging in, but it didn't work.
tabbed by need_more_tabs    if ur interested
ok, i found another I'll be ok bass tab on the internet, but it sounds wrong to me, and 
seem to fit. This is a simpler version. It might not be exactly what Dougie plays, but 
sounds good.

listen for timing
Intro:
G|11--9--11--9--11-9--11--9--11--9--11-9|
D|--------------------------------------|
A|--------------------------------------|
E|--------------------------------------|

Verse:
G|---------------------------------|
D|---------------------------------|
A|5--55-5-2--22-2----------5--55-5-|      X2
E|-55--5---22--2-2222232023-55--5-5|
When everything is going wrong...

Chorus: (listen for timing, It'll be obvious. as it goes with the words)
G|-----------------------|     G|----------|    G|------------------|
D|-----------------------|     D|----------|    D|------------------|
A|542542044445-542542075~|     A|NO BASS---|    A|3-3320----5--55-5-|
E|-----------------------|     E|----------|    E|------3320-55--5-5|
When you're down...              Oh just...       I'll, I'll be ok.

REPEAT VERSE

2nd chorus: (once more, listen for timing)
G|-----------------------|    G|------------------------|
D|-----------------------|    D|------------------------|
A|542542044445-542542075~|    A|-----------2-00----0-75~|
E|-----------------------|    E|3-53-21-0-------00------|
When you're down...             Try a little harder...

G|----------|    G|----------|
D|----------|    D|----------|
A|NO BASS---|    A|3-3320----|
E|----------|    E|------3320|
Oh just...       I'll, I'll be ok.
[ Tab from: http://www.guitartabs.cc/tabs/m/mcfly/ill_be_ok_btab_ver_2.html ]
Bridge:
G|------------------------------------------------------------------------|
D|------------------------------------------------12-12-12-12-12-12-12-12-|
A|13-13-13-13-13-13-13-13-15-15-15-15-15-15-15-15-------------------------|
E|------------------------------------------------------------------------|
  You're not alone...

G|------------------------------------------------------------------------|
D|14-14-14-14-14-14-14-14-15-15-15-15-15-15-15-15-17-17-17-17-17-17-17-17-|
A|------------------------------------------------------------------------|
E|------------------------------------------------------------------------|

G|--------------------|
D|--------------------|
A|5---5---5-5---5---5-|
E|--5---5--5--5---5--5|

Breakdown chorus (2:19)
G|------------------------------------------------------------------|
D|------------------10-10-10-10-10-10-10-10-------------------------|
A|15h17-15h17-15h17-------------------------10-10-10-10-10-10-10-10-|
E|------------------------------------------------------------------|

G|--------------------------------|
D|8-8-8-8-8-8-8-8-7-7-7-7-7-7-7-7-|
A|--------------------------------|
E|--------------------------------|

REPEAT 2ND CHORUS

G|------------------|      G|-------------------|
D|------------------|      D|-------------------|
A|3-3320----5--55-5-|      A|3--------10--------|
E|------3320-55--5-5|      E|-------------------|
  I'll, I'll be ok.          I'll, I'll be O-

Outro:
G|11--9--11--9--11-9-----|
D|-------------------12--|
A|-----------------------|
E|-----------------------|
    -K

That's it. enjoy!