Mcfly - I Wanna Hold You Chords & Tabs

 

I Wanna Hold You Chords & Tabs

Mcfly Chords & Tabs

Version: 2 Type: Tab 0 ratings
1 star 2 stars 3 stars 4 stars 5 stars
comments

I Wanna Hold You Tab

   
Heloooo, the other tab for the intro didnt quite sound right so i gave it a tweak.
i hope you like it and please feel free to leave comments, corrections or chat bout
McFly : minimum_impact@hotmail.com

Happy Playing :)
[ Tab from: http://www.guitartabs.cc/tabs/m/mcfly/i_wanna_hold_you_tab_ver_2.html ]
e----------------------------------------------6----8------|
a--------8--8--865---888-6-5---8--8--865-------6----8------|
d--------7--7--777---777-7-8---7--7--777----6h7--8h9-------|
g----------------------------------------------------------|
b----------------------------------------------------------|
e----------------------------------------------------------|

e-------------------------------------------------------6----8------|
a--------8--8--6-5-3---3h5-8-6-5---8--8--8-6-5-3--------6----8------|
d--------7--7--7-7---------7-7-7---7--7--7-7-7-------6h7--8h9-------|
g-------------------------------------------------------------------|
b-------------------------------------------------------------------|
e-------------------------------------------------------------------|

James H
Comments