Mcfly - I Wanna Hold You Chords & Tabs

 

I Wanna Hold You Chords & Tabs

Mcfly Chords & Tabs

Version: 2 Type: Bass Tab

I Wanna Hold You Bass Tab

McFly
I Wanna Hold You (Bass)
From the -Wonderland Album-
Tuning: Standard 
Transcribed by Soch Hean

(0:09)
|-----------------|
|-----------------|
|-----------------|
|-6-6-6--8-8-8--3-|

Verse:
|--------------|-----------------|--------------------|-------------|
|--------------|-----------------|--------------------|-------------|
|--------------|-----------------|--------------------|-------------|
|-1-3-1-3-3-1-3|1-3-1-3-1-3-3-1-3|1-3-1-3-1-3-3-1-3-1-|-6-6--8-8--3-|

|--------------------|-----------------|------------------------------|
|--------------------|-----------------|------------------------------|
|--------------------|-----------------|------------------------------|
|-1-1-3-1-3-1-3-3-1-3|1-3-1-3-1-3-3-1-3|1-3-1-3-1-3-3-1-3-1--6-6-8-8-3|

Chorus: (0:31)
|------------------------------------------------------------|
|------------------------------------------------------------|
|-5-5--5s7-5-7-9-7---------9---/14-12--9-----7-------7-5-7---|
|------------------7-7---7-----------------7----0--7---------|

|-------------------------------------------------------------------|
|----------------7-----------------5--------------------------------|
|------4-5-7---7---------2-3-5---5--------4-5-7-----------7--5------|
|-3-5--------5------5--3-------3------3-5-------5-5-----5-----------|

Verse 2: (0:51)
|---------|--------------|---------------------|---------------------|
|---------|--------------|--------------------3|---------------------|
|---------|--------------|----------------3h5--|---------------------|
|-0-1-2-3-|-1-3-1-3-3-1-3|1-3-1-3-1-3-3-1------|3-1-3-1-3-3-1-3-1----|

|----------|--------|--------------|---------------------------------|
|----------|--------|--------------|---------------------------------|
|----------|--------|--------------|---------------------------13----|
|-6-6-8-8-3|-0-1-2-3|-1-3-1-3-3-1-3|1=s15-13-15-13-15-15-13-15----15-|

|-----------------------------------------------|
|-----------------------------------------------|
|--------------------------13-13-15-------------|
|-13-15-13-15-15-13-15-13-----------13-15-------|

Chorus: (1:13)
|-----------------------------------------------------|
|----------------------9------------------------------|
|-5-5--5s7-5-7-5-----9---9-7-9-----7-------7-5-5-7----|
|----------------5-7-----------7------0--7------------|
[ Tab from: http://www.guitartabs.cc/tabs/m/mcfly/i_wanna_hold_you_btab_ver_2.html ]
|--------------------------------------------------------------------|
|----------------7-----------------5----------------7----------------|
|------4-5-7---7---------2-3-5---5--------4-5-7---7------5-----------|
|-3-5--------5------5--3-------3------3-5-------5------5-------------|

Bridge: (1:33)
|---------------------------------------------------------------|
|----------------------------------------------------------9----|
|-5-------2-----4-5------------7-------------4-5-----5--9-------|
|-----2-------------0------0-7---5---------7--------------------|

|--------------------------------------------------------------------|
|---12-11-9----------------------------------------------------------|
|-9----------12-11----9----------------------7-7-10--5-7---5-7---5-7-|
|-----------------------12-----7---8-8-10-10-------------------------|

|---------------|
|---------------|
|-5-7---5-7-----|
|---------------|

Solo: (1:57)
|----------------------|---------------------|-----------------------------|
|----------------------|--------------------3|-----------------------------|
|----------------------|----------------3h5--|-----------------------------|
|-0-1-2-3-1-3-1-3-3-1-3|1-3-1-3-1-3-3-1------|3-1-3-1-3-3-1-3-1--6-6--8-8--|

|---------------------------------------------------------------|
|---------------------------------------------------------------|
|-8h10--8-------------------------------------------------------|
|----------10-8-6---3-1-3-1-3-3-1-3--/13-15-13-15-13-15-15-13---|

|--------------------------------------------------------------------|
|--------------------------------------------------------------------|
|-13h15p13-------------------------------1-1--3----------------------|
|-----------15-13-15-13-15-15-13-15-13\---------1-3------------------|

Chorus: (2:18)
|-------------------------------------------------------------|
|----------------7-9-9----9--7=h9p7---------------------------|
|-5-5--5s7-5-7-9--------9-----------9------7----7-5-5-7-------|
|---------------------------------------0-----7---------------|

|--------------------------------------------------------------------|
|------------7-------------------5----------------7------------------|
|------4-5-7---7-------2-3-5---5--------4-5-7---7---7--5---4---2-----|
|-3-5------------5-4-3-------3------3-5-------5--------------------5-|

|------------------------------------|
|--------------------------7---7-----|
|-----2-----2-5------4-5-7---7---7---|
|-3-5---3-5------3-5-----------------|

Outro: (2:42)
|------------------------------------------------------------------|
|------------------------------------------------------------------|
|-5-5---5-5---5-5---5-5---5-5---5-5---5----3--5--------------------|
|-----5-----5-----5-----5-----5-----5------------------------------|

Legend:
s - Slide
h - Hammer-on
p - Pull-off