Mcfly - Broccoli Chords & Tabs

 

Broccoli Chords & Tabs

Mcfly Chords & Tabs

Version: 2 Type: Bass Tab 0 ratings
1 star 2 stars 3 stars 4 stars 5 stars
comments

Broccoli Bass Tab

----------------------------------------------------------------
                             Broccoli - Mcfly
----------------------------------------------------------------
Tabbed by: Jim-BlenderBR
 - Please rate and send me your feedback -

Verse 1
(Everything was going just the way...)

G|-----------------------------------------------------|
D|--------------5------------------------------5-------|
A|-------------5------------------------------5--------|
E|---------3-3----0333--55-555-55-555--15\3-3----0333--|

Pre-Chorus
(But then she called me...)

G|----------------------------------------------------|
D|----------------------------------------------------|
A|--55555555--2222--7-5-3---3577-55-33-22-00000233----|
E|-------------------------3--------------------------|

Chorus
(I should have known much better...)

G|---------------------------------------------------|
D|-------5-------------------------------------------|
A|------5----5-2-2--2-2-5-77-55-33-22-000000-55------|
E|--3-3----03------2---------------------------------|

G|-------------------------------------------------|
D|-------5-----------------------------------------|
A|------5----5-2-2--2-2-5-77-55-33-22-00000233-----|
E|--3-3----03------2-------------------------------|

Post-Chorus

G|----------------|
D|----------------|
A|------5/10------|
E|--3-3------035--|


Verse 2
(Blowing out the candles now...)

G|-----------------------------------------------|
D|---------------------------------------5-------|
A|------------------5-------------------5--------|
E|---------15\3-3--5--034-55-55--15\3-3----0333--|

Pre-Chorus
(They say that I'm a loser...)
[ Tab from: http://www.guitartabs.cc/tabs/m/mcfly/broccoli_btab_ver_2.html ]
G|------------------------------------------------------------|
D|------------------------------------------------------------|
A|-555555-17171717*--2222--77-55-33---3577-55-33-22-00000233--|
E|-----------------------------------3------------------------|
*17, not 1-7

Chorus
(I should have known much better...)

G|-------------------------------------------------|
D|-------5-----------------------------------------|
A|------5----5-2-2--2-2-5-77-55-33-22-000000-55----|
E|--3-3----03------2-------------------------------|

G|----------------------------------------------------|
D|----------5-----------------------------------------|
A|---------5----5-2-2--2-2-5-77-55-33-22-00000233-----|
E|--15\3-3----03------2-------------------------------|

Bridge
(She cares, she cares, she cares)

G|---------------------------------------------------|
D|---------------------------------------------------|
A|--------------55555---------------------333333/15--|
E|--00000-55555-------333-222-00000-55555------------|

Chorus
(I should have known much better...)

G|------------------------------------------|
D|------------------------------------------|
A|-------2-------19-17-15-14-15151515-1717*-|
E|--3---------------------------------------|
* 15, not 1-5

(But I'm, trying so hard to impress her ...)

G|--------------------------------------------------|
D|----------5---------------------------------------|
A|---------5----5-2-2--2-2-5-77-55-33-22-000000-55--|
E|--15\3-3----33------2-----------------------------|

G|-------------------------------------------------------|
D|-----------5------------------------------------557----|
A|----------5----5-2-2--2-2-5-7----33-22-333333-55-------|
E|--15\3-3----03------2----------------------------------|

G|----------------------------------------------|
D|-------5--------------------------------------|
A|------5----5-2-2--2-2-5-77-55-33-22-0---3-----|
E|--3-3----03------2-------------------------3--|
Comments