Mcfly - Broccoli Chords & Tabs

 

Broccoli Chords & Tabs

Mcfly Chords & Tabs

Version: 1 Type: Bass Tab 0 ratings
1 star 2 stars 3 stars 4 stars 5 stars
comments

Broccoli Bass Tab

 
Verse: (0:04)
|----------------------------------------------------------|
|----------------------------------------------------------|
|----------------------------------------------------------|
|-03-3-33-3-3-----05-5-55-5-5------------------------------|

 (0:11)
|----------------------------------------------------------|
|----------------------------------------------------------|
|----------------------------------------------------------|
|-/03-3-33-3-3---1010101010101010---77777--12-10-8-8-------|


 (0:23)
|----------------------------------------------------------|
|----------------------------------------------------------|
|---------------------------5-5----------------------------|
|--12-12-10-10-8-8-7-7-5-5---------------------------------|


 Chorus: (0:31)
|----------------------------------------------------------|
|----------------------------------------------------------|
|------------------------------77-55-33-22------5-5--------|
|-03-3-33-3-3-----07-7-77-7-7---------------55-------------| x2

(1:00)
|----------------------------------------------------------|
|----------------------------------------------------------|
|----------------------------------------------------------|
|-15-15---15h17-15/-----|

 
Verse: (1:04)
|----------------------------------------------------------|
|----------------------------------------------------------|
|----------------------------------------------------------|
|--5---03-3-33-3-3---5-5---5-5---03-3-33-3-3--101010101010-|

 (1:21)
|----------------------------------------------------------|
|----------------------------------------------------------|
|----------------------------------------------------------|
|-1717171717171717--77777--12-10-8-8---12-12-10-10-8-8-7-7-|
[ Tab from: http://www.guitartabs.cc/tabs/m/mcfly/broccoli_btab.html ]
(1:30)
|----------------------------------------------------------|
|----------------------------------------------------------|
|---------5-5----------------------------------------------|
|---5-5----------------------------------------------------|
 

Chorus: (1:34)
|----------------------------------------------------------|
|----------------------------------------------------------|
|------------------------------77-55-33-22------5-5--------|
|-03-3-33-3-3-----07-7-77-7-7---------------55-------------| x2

Bridge: (2:03)
|----------------------------------------------------------|
|----------------------------------------------------------|
|----------------------------------------------------------|
|---03-3-3---05-5-5----010-10-10---07-7-7-------03-3-3-----|

 (2:12)
|----------------------------------------------------------|
|----------------------------------------------------------|
|----------------------------------------------------------|
|--05-5-5---101010101010----5------------------------------|


Break: (2:18)
|----------------------------------------------------------|
|----------------------------------------------------------|
|----------------7--5--3--2-------------5-5----------------|
|---3-------7----------------555555555---------------------|


Chorus: (2:32)
|----------------------------------------------------------|
|----------------------------------------------------------|
|------------------------------77-55-33-22------5-5--------|
|-03-3-33-3-3-----07-7-77-7-7---------------55-------------| 

 (2:47)
|----------------------------------------------------------|
|----------------------------------------------------------|
|------------------------------7---33-22------5-5----------|
|-03-3-33-3-3-----07-7-77-7-7------------55----------------| 

(3:01)
|----------------------------------------------------------|
|----------------------------------------------------------|
|------------------------------77-55-33-22-----------------|
|-03-3-33-3-3-----07-7-77-7-7----------------5-------------| 

End On

|---------------------------------|
|---------------------------------|
|---------------------------------|
|--3------------------------------|
Comments