Mcfly - Alone Again Chords & Tabs

 

Alone Again Chords & Tabs

Mcfly Chords & Tabs

Version: 1 Type: Bass Tab 0 ratings
1 star 2 stars 3 stars 4 stars 5 stars
comments

Alone Again Bass Tab

   
this is my first tab this is mcfly alone again im sure its accurate just listen to the 
timing its pretty easy i found it out just by listening to it over and over again. 
standard tuning. any comments aodhanw@hotmail.co.uk

INTRO 0:09
G---------------------------------------------------------------------------|
D---------------7---5-------------------------------7---5-------------------|
A-1-1-1-1-1-1-5---3---5-5-5-5-5-5-3-3-1-1-1-1-1-1-5---3---5-5-5-5-5-5-3-3-1-|
E---------------------------------------------------------------------------|
VERSE
G---------------------------------------------------------------------|
D---------------------------------------------------------------------|
A-1-1-1-1-1-1-3-3-5-5-5-5-5-5-3-3-1-1-1-1-1-1-3-3-5-5-5-5-5-5-3-3-1-1-|
E---------------------------------------------------------------------|

PRE CHORUS SAME AS INTRO
[ Tab from: http://www.guitartabs.cc/tabs/m/mcfly/alone_again_btab.html ]
G---------------------------------------------------------------------------|
D---------------7---5-------------------------------7---5-------------------|
A-1-1-1-1-1-1-5---3---5-5-5-5-5-5-3-3-1-1-1-1-1-1-5---3---5-5-5-5-5-5-3-3-1-|
E---------------------------------------------------------------------------|


CHORUS
G---------------------------------------------------------------------|
D---------------7---5-------------------------------------------------|
A-1-1-1-1-1-1-5---3----5-5-5-5-5-5-8-8-1-3-5-1------------------------|
E---------------------------------------------------------------------|

BRIDGE
feelings getting stronger...
G----------------------------------------------------------------------|
D----------------------------------------------------------------------|
A-10~--5~--10~--5~--3-3-3-3-3-3-3-3-0-0-0-0-0-0-0-0--------------------|
E----------------------------------------------------------------------|
 after bridge go back into the chorus
Comments