Mcfly - All About You Chords & Tabs

 

All About You Chords & Tabs

Mcfly Chords & Tabs

Version: 5 Type: Tab 0 ratings
1 star 2 stars 3 stars 4 stars 5 stars
comments

All About You Tab

e|----------------------------------------------------------------------------|
B|----------------------------------------------------------------------------|
G|-------6--8---10--10--10--10------------------------------------------------|
D|---/8---------------------------11h10---8--10-------------------------------|
A|-------------------------------------------------11--13--11--4--6𦴚𦴕---|
E|----------------------------------------------------------------------------|
[ Tab from: http://www.guitartabs.cc/tabs/m/mcfly/all_about_you_tab_ver_5.html ]
e|-------------------------11/13--13--13---13--11--9-8--9---11---9------------|
B|-6---9---6---9/11----14-----------------------------------------------------|
G|----------------------------------------------------------------------------|
D|----------------------------------------------------------------------------|
A|----------------------------------------------------------------------------|
E|----------------------------------------------------------------------------|

e|--9--8---6---8--------------------------------------------------------------|
B|----------------9--6--------------------------------------------------------|
G|-----------------------8--6--8--6-------------------------------------------|
D|----------------------------------------------------------------------------|
A|----------------------------------------------------------------------------|
E|----------------------------------------------------------------------------|
Comments