Mcfly - All About You Chords & Tabs

 

All About You Chords & Tabs

Mcfly Chords & Tabs

Version: 4 Type: Tab 0 ratings
1 star 2 stars 3 stars 4 stars 5 stars
comments

All About You Tab

   
McFly
All About You
Transcribed by Soch H.


Capo 1st Fret

C	  Am
It's all about you (It's about you)
Dm        G
It's all about you baby (It's all about)
C         Am
It's all about you (It's about you)
Dm        G
It's all about you (It's all about)

C              E                    Am
Yesterday you asked me something I thought you'd knew
      F               G
So I told you with a smile
                C      G
It's all about you

(Riff at 0:48) (Not relative to capo)
|----------------------8-8-9--9---------------|
|-9-------9--10--10-11------------------------|
|---10s11-------------------------------------|
|---------------------------------------------|
|---------------------------------------------|
|---------------------------------------------|

|-----------------9--8---8-9-9h11--9----------|
|---------------------------------------------|
|-10s13-11--10s11-----------------------------|
|---------------------------------------------|
|---------------------------------------------|
|---------------------------------------------|

C                   E
Then you whispered in my ear 
         Am
And you told me to
           F                   G
Said you'd make my life worth while
                C       C7
It's all about you 

F                   Fm
And I would answer all your wishes
C       C/B     Am
If you asked me to
        D7
But if you deny me one of your kisses
G
Don't know what I'd do
C                     E                        Am   
So hold me close and say three words like you used to do
         F              G
Dancing on the kitchen tiles
               C     G
It's all about you, yeah

Guitar Solo (Gtr 1): (Not Relative To Capo)
& Backing Chords (Gtr 2)

[ Tab from: http://www.guitartabs.cc/tabs/m/mcfly/all_about_you_tab_ver_4.html ]
            C             E            Am
|----------------------------------------------------------|
|----------------------------------------------------------|
|----6-8-8s10-10-10-10~-----6p5---5------------------------|
|-/8----------------------------8----6-6s8-6---------------|
|--------------------------------------------8s6-4-6-4-----|
|------------------------------------------------------6---|

            F                       G                     C
|----------------9-11--11s13-13-13-13s11-11--9--8--9--11--9-----|
|-----9----9h11-------------------------------------------------|
|-/10---10------------------------------------------------------|
|---------------------------------------------------------------|
|---------------------------------------------------------------|
|---------------------------------------------------------------|

                  C7
|-9p8----8--------------------------------------------------|
|-----11---9------------------------------------------------|
|------------10--8s6---8-6-----8-6\-------------------------|
|--------------------8-------8------------------------------|
|-----------------------------------------------------------|
|-----------------------------------------------------------|

(Gtr 1 & Gtr 2)

F                   Fm
And I would answer all your wishes
C       C/B      Am
If you asked me to
       D7              
But if you deny me one of your kisses
G
Don't know what I'd do
C                     E                        Am
So hold me close and say three words like you used to do
         F              G
Dancing on the kitchen tiles
           F                  G
Yes she'd made my life worth while
      F               Fm
So i told you with a smile

(It's all about you)
C               Am
It's all about you (It's about you)
Dm         G      
It's all about you baby (It's all about)
C               Am
It's all about you (It's about you)
Dm         G
It's all about you baby (It's all about)

C               Am
It's all about you (It's about you)
Dm         G
It's all about you baby (It's all about)
C               Am
It's all about you (It's about you)
Dm        Fm
It's all about you (It's all about)
                C
It's all about youuuuuuuuuu


Chords:
C:   x32010
E:   022100
Am:  x02210
Dm:  xx0231
F:   133211
G:   320033
Fm:  133111
C7:  x32310
D7:  xx0212
Comments