Mcfly - All About You Chords & Tabs

 

All About You Chords & Tabs

Mcfly Chords & Tabs

Version: 1 Type: Tab 0 ratings
1 star 2 stars 3 stars 4 stars 5 stars
comments

All About You Tab

Mcfly - all about you

Standard tuning


I was asked to tab this out by a friend, so I Mayas well giv it out 2 all of you! Here 
avit Mcfly (even tho I hate them)


E|-----------------------------------------|
A|-----------------------------------------|
D|---6-8-s10s10s10s10~---------------------|
G|-8--------------------10h8----10---------|
B|--------------------------h10------------|
e|-----------------------------------------|


E|----------------------------9-11-9-11----|
A|------------------------9-11-------------|
D|---------------------s10-----------------|
G|--10-8-----------------------------------|
B|-------10-8------------------------------|
e|------------10-9-6-----------------------|

[ Tab from: http://www.guitartabs.cc/tabs/m/mcfly/all_about_you_tab.html ]
E|--s13s13s13s13-11-9-8-9-11-9-------------|
A|-----------------------------------------|
D|-----------------------------------------|
G|-----------------------------------------|
B|-----------------------------------------|
e|-----------------------------------------|


E|--9h11p9---9-----------------------------|
A|---------11-11---------------------------|
D|---------------11-9----11-9--------------|
G|--------------------11-----11-9-11-------|
B|-----------------------------------------|
e|-----------------------------------------|


h = hammer on
p = pull off
s = slide
~ = let note ring


and ther u av it, any questions or anything, hay just email me 2 let me know wat u 
email me at ljenkins040@aol.com thanx!!!!!!
Comments