Mcfly - All About You Chords & Tabs

 

All About You Chords & Tabs

Mcfly Chords & Tabs

Version: 4 Type: Bass Tab 0 ratings
1 star 2 stars 3 stars 4 stars 5 stars
comments

All About You Bass Tab

McFlY: All about you 

(And I would answer...)(1:03)
G------------------------------------------|
D------------------------------------------|
A-----------4--3--1-------6-----6----------|
E-2---------------------6-----6------4-----|

(So hold me close..) (1:18)
G------------------------------------------------------------|
D------------------------------------------------------------|
A-4----------1-----1-----------4-----------4-----------------|
E------1---------1-----4----2------4--4---------4--4-4-4-4---|

Guitar Solo: (1:32)
G-------------------------------------------------------------|
D-------------------------------------------------------------|
A-4-----------1------1-------------------4s6--4--4----4--4----|
E------1-----------1-----4----2---2-4--4----------------------|

(And I would answer...) (1:47) 
G-----------------------------------------------------------------|
D-----------------------------------------------------------------|
A-----------------------4--3--1---1-1-1-----6--6---6--------------|
E-2--2---2s==14--14-----------------------6------6----6-3-6-4--4--|
[ Tab from: http://www.guitartabs.cc/tabs/m/mcfly/all_about_you_btab_ver_4.html ]
(Hold me close...)(2:00)
G----------------------------------------------3--1------------|
D---------------------------------------------------4--3--4--4-|
A-6---------------4--4-4-6-6------3----1--1--------------------|
E---6-4--4s16\----------------1-----4--------------------------|

(Dancing on the kitchen tiles...) (2:10)
G---------------------------------------------------|
D-----------8-6-------------------------------------|
A---------------------------------------------------|
E-4-6--4--4-------2--2--6--4--4-6-4---2--2s14\------|

Chorus: (Its all about you...) (2:23)
G-----------------------------------------------------------------|
D-11--------13------------13-11=\---------------------------------|
A------13---------11---13------------------6--6----------6-4------|
E------------------------------------6--6---------4----6----------|

Drums Kick In (Its all about you...) (2:38)
G-----------------------------------------------------------------|
D-----------------------------------------------------------------|
A-4---3-1--1---1----6--6-----------6-4--4---4-----3--4---6--6-6-6-|
E------------1-----------6--4-4--6--------4----6-------6----------|

Ending: (2:51)
G-----------------------------------------------------------|
D-----------------------------------------------------------|
A-----------------------------4-----------------------------|
E-2---------------------------------------------------------|

BYE!
Comments