Mcferrin Bobby - Dont Worry Be Happy Chords & Tabs

 

Dont Worry Be Happy Chords & Tabs

Mcferrin Bobby Chords & Tabs

Version: 1 Type: Tab 0 ratings
1 star 2 stars 3 stars 4 stars 5 stars
comments

Dont Worry Be Happy Tab

"Dont Worry Be Happy"
By: Bobby McFerrin
Tabbed by:  «VsG» RageAgainstDubya@yahoo.com

e|----8-5---5--------------------------------------------------|
B|--------8---5-8-5/3---3-5-3-----5-3--3-5-3-----5-3-----------|
G|--------------------5--------------5--------------5-2-5------|
D|-------------------------------------------------------------|
A|-------------------------------------------------------------|
E|-------------------------------------------------------------|
[ Tab from: http://www.guitartabs.cc/tabs/m/mcferrin_bobby/dont_worry_be_happy_tab.html ]
e|----5-5--5-5--5-5---5-5--5-7--7-7--7-7--7-7--7-7--7-7--7-5-7-|
B|----7-7--7-7--7-7---7-7--7-7--7-7--7-7--7-7--7-7--7-7--7-7-7-|
G|-------------------------------------------------------------|
D|-------------------------------------------------------------|
A|-------------------------------------------------------------|
E|-------------------------------------------------------------|

For the chords:  that's all I could come up with not sure if it's 100%,
but is sounds close.  Listen to the song and you'll get the rythmn of it.
Comments