Mcd - No Mas Punkies Muertos Chords & Tabs

 

No Mas Punkies Muertos Chords & Tabs

Mcd Chords & Tabs

Version: 1 Type: Tab 0 ratings
1 star 2 stars 3 stars 4 stars 5 stars
comments

No Mas Punkies Muertos Tab

   
NO MAS PUNKIS MUERTOS (MCD)

{INTRO BAJO}

G|----------------|----------------|----------------|
D|----------------|----------------|----------------|
A|----------------|0-0-0-0-0-0-0-0-|2-2-2-2-2-2-2-2-|
E|----------0-2-4-|----------------|----------------|

G|----------------|----------------|
D|0-0-0-0-0-0-2-2-|----------------|
A|----------------|0-0-0-0-0-------|
E|----------------|----------0-2-4-|


{GUITARRA}

A/B/D/A

A               B               D   A
No más punkies, no más punkies muertos 
{REPETIR VARIAS VECES}


ESTROFA 1
A                       B 
Cuanto tiempo llevas colgado de cadenas
D                        A
cuanto tiempo hace que pasó tu esplendor?
A                   B
Todas esas noches llenas de cerveza,
D                    A
broncas y cacheos están en un rincón
A                     B             
Ha llegado la hora de no quedarse atrás
D                          A
o en cualquier momento de tí se reirán

ESTRIBILLO
A               B
No más punkies muertos!!
D        E       A
Punkies muertos no!!
{REPETIR 2 VECES}
[ Tab from: http://www.guitartabs.cc/tabs/m/mcd/no_mas_punkies_muertos_tab.html ]
RIFF 1
   A             B                  D             A
e|----------------|----------------|----------------|----------------|
B|----------------|----------------|----------------|----------------|
G|----------------|----------------|2-------2-------|----------------|
D|2-------2-------|----0-1-4-1-0---|0---3-4---4-3-2-|--------2-------|
A|0---3-4---4-0-2-|--2-----------2-|--------------0-|--0-3-4---0-3-4-|
E|----------------|----------------|----------------|----------------|
{REPETIR}


ESTROFA 2                 
Pelos de colores, chupas con remaches
dentro de tu bolo están rotos los cristales
trastorno juvenil es una frustración,
violencia por la cara, primera reacción
Ha llegado la hora de no quedarse atrás
o en cualquier momento de tí se reirán

ESTRIBILLO

RIFF 2
{LA 1ª PARTE ES IGUAL AL RIFF 1}
{LA 2ª PARTE ES TODO LIGADO, SOLO SE TOCA LA 1ª NOTA CON LA PUA}
  A                F#m              D                A
e|----------------|----------------|----------------|----------------|
B|----------------|----------------|----------------|----------------|
G|7-6-7-6-7-6-7-6-|7-6-7-6-7-6-7-6-|7-6-7-6-7-6-7-6-|----------------|
D|----------------|----------------|----------------|----------------|
A|----------------|----------------|----------------|----------------|
E|----------------|----------------|----------------|----------------|


{Y AHORA VIENE UNA IMPROVISACION PUNKARRA SOBRE ESTOS ACORDES)

A/B/D/A
A/B/D/A

{SE REPITE LA ULTIMA ESTROFA, EL ESTRIBILLO Y EL RIFF 1}

{SE VUELVE AL PRINCIPIO ACELERANDO Y SE TERMINA CON EL ESTRIBILLO)

------------------------------------------------------------------------------

Esta tablatura es propiedad de sus autores, o sea, MCD.
Si quieres cambiarla, atribuirtela, acortarla o lo que te de la gana, tu mism@,
que te diviertas.
Visita nuestra página http://www.imbecil.com o escríbenos a info@imbecil.com.
Comments