Mccartney Paul - Singalong Junk Chords & Tabs

 

Singalong Junk Chords & Tabs

Mccartney Paul Chords & Tabs

Version: 1 Type: Tab 0 ratings
1 star 2 stars 3 stars 4 stars 5 stars
comments

Singalong Junk Tab

   
Singalong Junk
Paul McCartney
McCartney (April 1970)
Transcribed by Serge of Richmond tarasen@telus.net

There's a transcription already on this site, but slightly different from this one, especially riff two. Dmaj7 and A chords (riff one) may include slight strumming; it is optional and not included in the scores. Comments/corrections/other versions are highly appreciated.
[ Tab from: http://www.guitartabs.cc/tabs/m/mccartney_paul/singalong_junk_tab.html ]
   F#m        C#7          F#m7/E       Dmaj7
|-----------------------------------2---2----2--4-5-7--2-----5--
|--2--3-2--------2---------2--3--2------2----2------------2-----
|---------2---4-----4------2------------2----2------------2-----
|--4-------------------3---2------------0----0---------0--------
|-------------4-------------------------------------------------
|---------------------------------------------------------------

   A
-----------------|
---2--2----2--2--|
---2--2----2--2--|
---2--2----2--2--|
-0-0--0--0-0--0--|
-----------------|



   D7sus4Dm A Asus4  E F#m E7(*)A Asus4 
|--3--3--1----------------------------0--|
|--3--3--3--2--3--2--0--2--3----2--3-----|
|--2--2--2--2--2--2--1--2--1----2--2-----|
|--0-----0--2--2--2--2--2--2----2--2-----|
|-----------0--0--0--2--4--2----0--0--0--|
|----------------------------------------|






















Comments