Mccartney Paul - Calico Skies Chords & Tabs

 

Calico Skies Chords & Tabs

Mccartney Paul Chords & Tabs

Version: 1 Type: Tab 0 ratings
1 star 2 stars 3 stars 4 stars 5 stars
comments

Calico Skies Tab

Date: 5th January 2004
From: Matthew Irving 

Song: Calico Skies
By: Paul McCartney
Album: Flaming Pie

Transcribed by Matthew "The Irv" Irving
(Comments to m_r_irving@hotmail.com)

Main riff:

|10--10-10--9--7--5--5-5--3-2--10--10-10--9--7--5-7-3-2-|
|10--10-10--10-8--7--7-7--3-3--10--10-10--10-8--7-7-3-3-|
|11--11-11--9--7--7--7-7--4-2--11--11-11--9--7--7-7-4-2-|
|0----------0--0--0-------0-0--0----------0--0--0-0-0-0-|
|-------------------------------------------------------|
|-------------------------------------------------------|
  
Chorus:
[ Tab from: http://www.guitartabs.cc/tabs/m/mccartney_paul/calico_skies_tab.html ]
|---0-----0--------------------------0-----0-----------------------5|
|3-----3-----------2--3--5--3--2--3-(3)-3-----------2--3--5--3--2--7|
|2-----0----------(2)(2)(2)(2)(2)-4-(4)-0----------(2)(2)(2)(2)(2)-7|
|0-----0----------(2)(2)(2)(2)(2)-4-(4)-0----------(2)(2)(2)(2)(2)-0|
|---------------0--0--0--0--0--0--2--0-----------0--0--0--0--0--0---|
|2-----3-----4--------------------------3-----4---------------------|
 
(If your not very good, you don't have to play the notes in brackets.  
It's easier to play with the other notes because it stops wrong notes 
from ringing if played incorrect.)

Happy Playing.
Comments